Beatles

Im Happy Just To Dance With You Bass Tabs



More from Beatles

Beatles Tabs
Beatles Chords
Beatles Bass
Beatles Lyrics



+++++++++++++++++++++++++++++++++++++++++++++++

|The Beatles- I'm Happy Just To Dance With You|

+++++++++++++++++++++++++++++++++++++++++++++++



(John Lennon/Paul McCartney)



Tuning: EADG



Intro.

1.

G|-------------------------------------|

D|-------------------------------------|

A|-4~-4-240--------2--4~-4-240---------|

E|----------222-444------------222-444-|



"Before this dance is through.."

2.

G|-----------------------------------|

D|-----------------------------------|

A|-4~-4-240-------------------777----|

E|----------222-444--222-444-----777-|



Verse

"I don't want to kiss or hold your hand."

3.

G|------1~---------------1~----------|

D|-2-222----4-444---2-222----4-444---|

A|---------------2~---------------2~-|

E|-----------------------------------|



"There is really nothing else I'd rather do.."

4.

G|-----------------------------------|

D|----------2-222--------------------|

A|-0-000-4~------2~--0-000-4~-4~-2~--|

E|-----------------------------------|



"I don't need to hug or hold you tight.."

5.

G|------1~---------------1~----------|

D|-2-222----4-444---2-222----4-444---|

A|---------------2~---------------2~-|

E|-----------------------------------|



"In this world there's nothing I would rather do.."

6.

G|-----------------------------------|

D|----------2-222--------------------|

A|-0-000-4~------2~--0-000-4~-4~-2~--|

E|-----------------------------------|



Chorus

"Just to dance with you.."

7.

G|-------------------------------------|

D|-------------------------------------|

A|-4~-4-240--------2--4~-4-240---------|

E|----------222-444------------222-444-|



"Before this dance is through.."

8.

G|-----------------------------------|

D|-----------------------------------|

A|-4~-4-240-------------------777----|

E|----------222-444--222-444-----777-|



Verse

"If somebody tries to take my place.."

9.

G|------1~---------------1~----------|

D|-2-222----4-444---2-222----4-444---|

A|---------------2~---------------2~-|

E|-----------------------------------|



"In this world there's nothing I would rather do.."

10.

G|-----------------------------------|

D|----------2-222--------------------|

A|-0-000-4~------2~--0-000-4~-4~-2~--|

E|-----------------------------------|



Chorus

"Just to dance with you.."

11.

G|-------------------------------------|

D|-------------------------------------|

A|-4~-4-240--------2--4~-4-240---------|

E|----------222-444------------222-444-|



"Before this dance is through.."

12.

G|-----------------------------------|

D|-----------------------------------|

A|-4~-4-240-------------------777----|

E|----------222-444--222-444-----777-|



Verse

"If somebody tries to take my place.."

13.

G|------1~---------------1~----------|

D|-2-222----4-444---2-222----4-444---|

A|---------------2~---------------2~-|

E|-----------------------------------|



"In this world there's nothing I would rather do.."

14.

G|----------------------------|

D|----------2-222-------------|

A|-0-000-4~------2~--0-000-3~-|

E|----------------------------|



"'Cos I'm happy just to dance with you.."

15.

G|--------------------------------------------|

D|--------------------------------------------|

A|-4~-4-240--------22223333--4~-4-240---------|

E|----------222-444-------------------222-444-|



16.

G|------------|

D|------------|

A|---------7~-|

E|-222-444----|



Please rate :D



++++++++++++++++++++++++++++++++++++++++++++++++++++

Lyrics



Before this dance is through

I think I'll love you too

I'm so happy when you dance with me



I don't want to kiss or hold your hand

If it's funny try and understand

There is really nothing else I'd rather do

Cos I'm happy just to dance with you



I don't need to hug or hold you tight

I just want to dance with you all night

In this world there's nothing I would rather do

Cos I'm happy just to dance with you



Just to dance with you

It's everything I need

Before this dance is through

I think I'll love you too

I'm so happy when you dance with me



If somebody tries to take my place

Let's pretend we just can't see his face

In this world there's nothing I would rather do

Cos I'm happy just to dance with you



I've discovered I'm in love with you

Cos I'm happy just to dance with you

++++++++++++++++++++++++++++++++++++++++++++++++++++



+++++++++++++++++++++++++++++++

|RaiLeff |

|webmaster at tabs-database.com.com|

+++++++++++++++++++++++++++++++Added by tabs-database.com and our distinguished partners
Get this song at amazon.com      Ebay     Ringtones Ringtones  


Learn to play: Songwriting, Piano, Harmonica, Guitar

Related Beatles Tabs

Goldenslumbers tabs
Yesterday Jazz Version tabs
Thatsalrightmama tabs
Youve Got To Hide Your Love Away Bass tabs
Gooddaysunshine tabs
She Came In Through The Bathroom Window tabs
Andiloveher tabs
One After Nine-oh-nine tabs
Hello~c Goodbye tabs
For No One tabs
Sun King tabs
Thank You Girl tabs
I Dont Want To Spoil tabs
When Im Sixty Four tabs
Sergeant Peppers Lonely tabs
I Call Your Name tabs
Here There Everywhere tabs
Ob La Di~c Ob La Da tabs
Imsotired tabs
Baby Its You tabs


Guitar Tabs









All tabs are property and copyright of their owners. All tabs provided for educational purposes only. Privacy Policy, DMCA