Beatles

Im A Loser Bass Tabs



More from Beatles

Beatles Tabs
Beatles Chords
Beatles Bass
Beatles Lyrics

I'm A Loser

The Beatles

Written by John Lennon and Paul McCartney; released on "Beatles For Sale"

album



This is one of my favourite songs. I like the lyrics, Paul's bassline in the

refrains, and the solo which is played by John on harmonica then by George

on guitar. You can slightly feel Bob Dylan's influence on this song.



Intro:

G|------ ------ ------ ------|------ ------ ------ ------|

D|---------------------------|---------------------------|

A|---------------------------|---------------------------|

E|---------------------------|---------------------------|

I'm a





G|---------------------------------------|

D|---------------------------------------|

A|---------------------------------------|

E|---------------------------------------|

lo-





G|-------------------------------------------------|

D|-------------------------------------------------|

A|-------------------------------------------------|

E|-------------------------------------------------|

ser, I'm a





G|-----------------------------------------|

D|-----------------------------------------|

A|-----------------------------------------|

E|-----------------------------------------|

lo-





G|---------------------------------------|

D|---------------------------------------|

A|---------------------------------------|

E|---------------------------------------|

ser, and I'm





G|------ ------ ------ ------|------ ------ ------ ------|

D|---------------------------|---------------------------|

A|---------------------------|---------------------5-----|

E|---------------------------|---------------------------|

not what I ap - pear to be



Verse:

G|------ ------ ------ ------|------ ------ ------ ------|

D|5--------------------5-----|---------------------------|

A|--------------5------------|5----------5---------5-----|

E|---------------------------|--------------5------------|

Of all the love I have won,





G|------ ------ ------ ------|------ ------ ------ ------|

D|3----------3---------3---/-|5----------5---------4-----|

A|--------------3------------|--------------5------------|

E|---------------------------|---------------------------|

or have lost,





G|------ ------ ------ ------|------ ------ ------ 7-----|

D|5----------5---------5-----|--------------7-/-9--------|

A|--------------5------------|5--------------------------|

E|---------------------------|---------------------------|

there is one love I should





G|------ ------ ------ ------|------ ------ ------ ------|

D|3--------------------3---/-|5----------5---------4-----|

A|--------------3------------|--------------5------------|

E|---------------------------|---------------------------|

ne - ver have crossed





G|------ ------ ------ ------|------ ------ ------ ------|

D|5--------------------5-----|---------------------------|

A|--------------5------------|5----------5---------5-----|

E|---------------------------|--------------5------------|

She was a girl in a mil-





G|------ ------ ------ ------|------ ------ ------ ------|

D|3----------3---------3---/-|5--------------------------|

A|--------------3------------|--------------5------5-----|

E|---------------------------|---------------------------|

lion, my friend,





G|------ ------ ------ ------|------ ------ ------ ------|

D|5--------------------5-----|---------------------------|

A|--------------5------------|5--------------------5-----|

E|---------------------------|--------------5------------|

I should known she would win

have



G|------ ------ ------ ------|------ ------ ------ ------|

D|3--------------------3-----|5--------------------5-----|

A|--------------3------------|--------------5------------|

E|---------------------------|---------------------------|

in the end I'm a lo-



Refrain:

G|------ ------ ------ ------|------ ------ ------ ------|

D|---------------------------|---------------------------|

A|---------------------------|---------------------------|

E|5------7------8------9-----|10-----8------7------5-----|

ser, and I lost





G|------ ------ ------ ------|------ ------ ------ ------|

D|---------------------------|---------------------------|

A|---------------------------|---------------------------|

E|5------7------8------9-----|10-----8------7------5-----|

some - one that's near to me, I'm a lo-





G|------ ------ ------ ------|------ ------ ------ ------|

D|5------4-------------------|---------------------------|

A|--------------7------5-----|7------5-------------------|

E|---------------------------|--------------8------7-----|

ser, and I'm





G|------ ------ ------ ------|------ ------ ------ ------|

D|---------------------------|---------------------------|

A|---------------------------|8------7------5------5-----|

E|5------7------8------5-----|---------------------------|

not what I ap - pear to be



Verse:

G|------ ------ ------ ------|------ ------ ------ ------|

D|5----------5---------5-----|---------------------------|

A|--------------5------------|5----------5---------5-----|

E|---------------------------|--------------5------------|

Al - though I laugh and I act





G|------ ------ ------ ------|------ ------ ------ ------|

D|3--------------------3---/-|5--------------------------|

A|--------------3------------|--------------5------------|

E|---------------------------|---------------------------|

like a clown,





G|------ ------ ------ ------|------ ------ ------ 7-----|

D|5--------------------5-----|--------------7-/-9--------|

A|--------------5------------|5--------------------------|

E|---------------------------|---------------------------|

beneath this mask I am





G|------ ------ ------ ------|------ ------ ------ ------|

D|3--------------------3---/-|5----------5---------------|

A|--------------3------------|--------------5------5-----|

E|---------------------------|---------------------------|

wea - ring a frown





G|------ ------ ------ ------|------ ------ ------ ------|

D|5--------------------5-----|---------------------------|

A|--------------5------------|5----------5---------5-----|

E|---------------------------|--------------5------------|

My tears are fal - ling like rain





G|------ ------ ------ ------|------ ------ ------ ------|

D|3----------3---------3-----|5----------5---------------|

A|--------------3------------|--------------5------5-----|

E|---------------------------|---------------------------|

from the sky,





G|------ ------ ------ ------|------ ------ ------ ------|

D|5----------5---------------|---------------------------|

A|--------------5------5-----|5--------------------5-----|

E|---------------------------|--------------5------------|

is it for her, or my - self





G|------ ------ ------ ------|------ ------ ------ ------|

D|3--------------------3-----|5--------------------5-----|

A|--------------3------------|--------------5------------|

E|---------------------------|---------------------------|

that I cry? I'm a lo-



Refrain:

G|------ ------ ------ ------|------ ------ ------ ------|

D|---------------------------|---------------------------|

A|---------------------------|---------------------------|

E|5------7------8------9-----|10-----8------7------5-----|

ser, and I lost





G|------ ------ ------ ------|------ ------ ------ ------|

D|---------------------------|---------------------------|

A|---------------------------|---------------------------|

E|5------7------8------9-----|10-----8------7------5-----|

some - one that's near to me, I'm a lo-





G|------ ------ ------ ------|------ ------ ------ ------|

D|5------4-------------------|---------------------------|

A|--------------7------5-----|7------5-------------------|

E|---------------------------|--------------8------7-----|

ser, and I'm





G|------ ------ ------ ------|------ ------ ------ ------|

D|---------------------------|---------------------------|

A|---------------------------|8------7------5------5-----|

E|5------7------8------5-----|---------------------------|

not what I ap - pear to be



Break (solo):

G|------ ------ ------ ------|------ ------ ------ ------|

D|5------5-------------------|---------------------------|

A|--------------5------5-----|5--------------------5-----|

E|---------------------------|--------------5------------|







G|------ ------ ------ ------|------ ------ ------ ------|

D|3--------------------3---/-|5----------5---------4-----|

A|--------------3------------|--------------5------------|

E|---------------------------|---------------------------|







G|------ ------ ------ ------|------ ------ ------ 7-----|

D|5----------5---------5-----|--------------7-/-9--------|

A|--------------5------------|5--------------------------|

E|---------------------------|---------------------------|







G|------ ------ ------ ------|------ ------ ------ ------|

D|3--------------------3---/-|5--------------------------|

A|--------------3------------|--------------5------------|

E|---------------------------|---------------------------|







G|------ ------ ------ ------|------ ------ ------ ------|

D|---------------------------|---------------------------|

A|---------------------------|---------------------------|

E|5------7------8------9---9-|10--10-8------7------5-----|







G|------ ------ ------ ------|------ ------ ------ ------|

D|---------------------------|---------------------------|

A|-------------------------5-|----5----------------------|

E|5------7------8------5-----|-------8------7------5-----|







G|------ ------ ------ ------|------ ------ ------ ------|

D|5------4-------------------|---------------------------|

A|--------------7------5-----|7------5-------------------|

E|---------------------------|--------------8------7---5-|







G|------ ------ ------ ------|------ ------ ------ ------|

D|---------------------------|---------------------------|

A|---------------------------|8------7------5------5-----|

E|5------7------8------5-----|---------------------------|





Verse:

G|------ ------ ------ ------|------ ------ ------ ------|

D|5--------------------5-----|---------------------------|

A|--------------5------------|5--------------------5-----|

E|---------------------------|--------------5------------|

What have I done to de - serve





G|------ ------ ------ ------|------ ------ ------ ------|

D|3----------3---------3-----|5--------------------------|

A|--------------3------------|--------------5------5-----|

E|---------------------------|---------------------------|

such a fate?





G|------ ------ ------ ------|------ ------ ------ ------|

D|5--------------------5-----|---------------------------|

A|--------------5------------|5--------------------5-----|

E|---------------------------|-----------5--5------------|

I re- a - lize I have





G|------ ------ ------ ------|------ ------ ------ ------|

D|3----------3---------3---/-|5----------5---------4-----|

A|--------------3------------|--------------5------------|

E|---------------------------|---------------------------|

left it too late





G|------ ------ ------ ------|------ ------ ------ ------|

D|5--------------------5-----|---------------------------|

A|--------------5------------|5----------5---------5-----|

E|---------------------------|--------------5------------|

And so, it's true, pride comes be-





G|------ ------ ------ ------|------ ------ ------ ------|

D|3--------------------3-----|5--------------------------|

A|--------------3------------|--------------5------5-----|

E|---------------------------|---------------------------|

fore a fall





G|------ ------ ------ ------|------ ------ ------ ------|

D|5--------------------5-----|---------------------------|

A|--------------5------------|5----------5---------5-----|

E|---------------------------|--------------5------------|

I'm telling you, so that you





G|------ ------ ------ ------|------ ------ ------ ------|

D|3----------3---------3-----|5----------5---------5-----|

A|--------------3------------|--------------5------------|

E|---------------------------|---------------------------|

won't lose all I'm a lo-



Refrain:

G|------ ------ ------ ------|------ ------ ------ ------|

D|---------------------------|---------------------------|

A|---------------------------|---------------------------|

E|5------7------8------9-----|10-----8------7------5-----|

ser, and I lost





G|------ ------ ------ ------|------ ------ ------ ------|

D|---------------------------|---------------------------|

A|---------------------------|---------------------------|

E|5------7------8------9-----|10-----8------7------5-----|

some - one that's near to me, I'm a lo-





G|------ ------ ------ ------|------ ------ ------ ------|

D|5------4-------------------|---------------------------|

A|--------------7------5-----|7------5-------------------|

E|---------------------------|--------------8------7-----|

ser, and I'm





G|------ ------ ------ ------|------ ------ ------ ------|

D|---------------------------|---------------------------|

A|---------------------------|8------7------5------5-----|

E|5------7------8------5-----|---------------------------|

not what I ap - pear to be



Break (solo):

G|------ ------ ------ ------|------ ------ ------ ------|

D|5--------------------5-----|---------------------------|

A|--------------5------------|5----------5---------5-----|

E|---------------------------|--------------5------------|







G|------ ------ ------ ------|------ ------ ------ ------|

D|3--------------------3---/-|5------5-------------4-----|

A|--------------3------------|--------------5------------|

E|---------------------------|---------------------------|







G|------ ------ ------ ------|------ ------ ------ ------|

D|5------5-------------5-----|---------------------------|

A|--------------5------------|5--------------------5-----|

E|---------------------------|--------------5------------|







G|------ ------ ------ ------|------ ------ ------ ------|

D|3--------------------3---/-|5--------------------------|

A|--------------3------------|--------------5------------|

E|---------------------------|---------------------------|







G|------ ------ ------ ------|------ ------ ------ ------|

D|---------------------------|---------------------------|

A|---------------------------|---------------------------|

E|5------7------8------9---9-|10-----8------7------5-----|

fade...



Please e-mail me for any corrections.Added by tabs-database.com and our distinguished partners
Get this song at amazon.com      Ebay     Ringtones Ringtones  


Learn to play: Songwriting, Piano, Harmonica, Guitar

Related Beatles Tabs

Oh~e Darling tabs
In My Life tabs
Youve Got To Hide Your Love Away tabs
Nobodyiknow tabs
One & One Is Two tabs
I Want To Hold Your Hand tabs
Ill Follow The Sun tabs
Good Morning tabs
Twoofus tabs
Badboy tabs
Tax Man tabs
Dont Bother Me tabs
Wait tabs
Wild Honey Pie tabs
Misery tabs
Yes It Is Bass tabs
8 Days A Week tabs
Mother Natures Son tabs
Day Tripper Btab tabs
All You Need Is Love Acoustic tabs


Guitar Tabs









All tabs are property and copyright of their owners. All tabs provided for educational purposes only. Privacy Policy, DMCA