Beatles

Ill Get You Bass Tabs



More from Beatles

Beatles Tabs
Beatles Chords
Beatles Bass
Beatles Lyrics

I'll Get You

The Beatles

Written by John Lennon and Paul McCartney; released on single "She Loves You / I'll Get You"



A simple song, but it's fun! :-)



Intro:

G|------- ------- ------- -------|------- ------- ------- -------|

D|-------------------------------|--------------------7---5---4--|

A|-------------------------------|-------------------------------|

E|-------------------------------|-------------------------------|

Oh,





G|------- ------- ------- -------|------- ------- ------- -------|

D|-------------------------------|7-----------7---7--------------|

A|5-----------5---5--------------|-------------------------------|

E|-------------------------------|-------------------------------|

yeah, oh, yeah! Oh,





G|------- ------- ------- -------|------- ------- ------- -------|

D|-------------------------------|7-----------7---7--------------|

A|5-----------5---5--------------|-------------------------------|

E|-------------------------------|-------------------------------|

yeah, oh, yeah! I-



Verse:

G|------- ------- ------- -------|------- ------- ------- -------|

D|----------------7--------------|----------------7--------------|

A|5---------------------------4--|5---------------------------5--|

E|-------------------------------|-------------------------------|

ma - gine I'm in love with you, it's





G|------- ------- ------- -------|------- ------- ------- -------|

D|5-----------5------------------|7-----------7------------------|

A|----------------5--------------|----------------7--------------|

E|-------------------------------|-------------------------------|

ea - sy, cause I know I've i-





G|------- ------- ------- -------|------- ------- ------- -------|

D|-------------------------------|-------------------------------|

A|5-----------5---5--------------|-------------------------------|

E|-------------------------------|7-----------7---7--------------|

ma - gined I'm in love with you





G|------- ------- ------- -------|------- ------- ------- -------|

D|5-----------5-----------5------|7-----------7---7--------------|

A|----------------5--------------|-------------------------------|

E|-------------------------------|-------------------------------|

many, many, times be- fore It's not

many



G|------- ------- ------- -------|------- ------- ------- -------|

D|-------------------------------|7-----------7---7--------------|

A|5-----------5---5--------------|-------------------------------|

E|-------------------------------|-------------------------------|

like me to pre-tend, but I'll





G|------- ------- ------- -------|------- ------- ------- -------|

D|------------4---7-------4---7--|-------------------------------|

A|5------------------------------|----------------9--------------|

E|-------------------------------|7-----------7-----------7------|

get you, I'll get you in the end Yes, I





G|------- ------- ------- -------|------- ------- ------- -------|

D|5-----------5-----------5------|7-----------7---7--------------|

A|----------------5--------------|-------------------------------|

E|-------------------------------|-------------------------------|

will, I'll get you in the end, oh,





G|------- ------- ------- -------|------- ------- ------- -------|

D|------------4---7-------4------|7-----------7---7--------------|

A|5------------------------------|-------------------------------|

E|-------------------------------|-------------------------------|

yeah, oh, yeah! I



Verse:

G|------- ------- ------- -------|------- ------- ------- -------|

D|----------------7--------------|----------------7--------------|

A|5---------------------------4--|5-----------5---------------5--|

E|-------------------------------|-------------------------------|

think a - bout you night and day, I





G|------- ------- ------- -------|------- ------- ------- -------|

D|5-----------5------------------|7-----------7---7--------------|

A|----------------5--------------|-------------------------------|

E|-------------------------------|-------------------------------|

need you, and it's true When I





G|------- ------- ------- -------|------- ------- ------- -------|

D|----------------7--------------|-------------------------------|

A|5-----------5-----------5------|----------------9--------------|

E|-------------------------------|7-----------7------------------|

think a - bout you, I can say: I'm





G|------- ------- ------- -------|------- ------- ------- -------|

D|5-----------5-----------5------|7-----------7---7--------------|

A|----------------5--------------|-------------------------------|

E|-------------------------------|-------------------------------|

never, never, ne - ver blue So I'm

never,



G|------- ------- ------- -------|------- ------- ------- -------|

D|-------------------------------|7---7---7---7---7---7---7------|

A|5---5---5---5---5---5---5---5--|-------------------------------|

E|-------------------------------|-------------------------------|

telling you, my friend that I'll





G|------- ------- ------- -------|------- ------- ------- -------|

D|------------4---7-------4---7--|-------------------------------|

A|5------------------------------|----------------9--------------|

E|-------------------------------|7-----------7-----------7------|

get you, I'll get you in the end Yes, I





G|------- ------- ------- -------|------- ------- ------- -------|

D|5-----------5-----------5------|7------------------------------|

A|----------------5--------------|------------4---7-------4------|

E|-------------------------------|-------------------------------|

will, I'll get you in the end, oh,





G|------- ------- ------- -------|------- ------- ------- -------|

D|------------4---7-------4------|7-----------7---7--------------|

A|5------------------------------|-------------------------------|

E|-------------------------------|-------------------------------|

yeah, oh, yeah! Well, there's



Bridge:

G|------- ------- ------- -------|------- ------- ------- -------|

D|5-----------5---------------4--|5-----------5---------------5--|

A|----------------5--------------|----------------5--------------|

E|-------------------------------|-------------------------------|

gon - na be a time when I'm





G|------- ------- ------- -------|------- ------- ------- -------|

D|----------------7--------------|----------------7--------------|

A|5-----------5---------------4--|5-----------5-----------5------|

E|-------------------------------|-------------------------------|

gon - na change your mind, So you





G|------- ------- ------- -------|------- ------- ------- -------|

D|----------------9--------------|----------------9--------------|

A|7-----------7---------------6--|7-----------7---------------6--|

E|-------------------------------|-------------------------------|

might as well re- sign yourself to





G|------- ------- ------- -------|------- ------- ------- -------|

D|7-------7---7---7--------------|7-------5-------5-p-4----------|

A|-------------------------------|------------------------7------|

E|-------------------------------|-------------------------------|

me, oh, yeah! I-



Verse:

G|------- ------- ------- -------|------- ------- ------- -------|

D|----------------7--------------|----------------7--------------|

A|5---------------------------4--|5-----------5---------------4--|

E|-------------------------------|-------------------------------|

ma - gine I'm in love with you, it's





G|------- ------- ------- -------|------- ------- ------- -------|

D|5-----------5------------------|7-----------7-----------7------|

A|----------------5--------------|----------------7--------------|

E|-------------------------------|-------------------------------|

ea - sy, cause I know I've i-





G|------- ------- ------- -------|------- ------- ------- -------|

D|----------------7--------------|-------------------------------|

A|5-----------5-----------5------|----------------9--------------|

E|-------------------------------|7-----------7---------------7--|

ma - gined I'm in love with you





G|------- ------- ------- -------|------- ------- ------- -------|

D|5-----------5-----------5------|7-----------7---7--------------|

A|----------------5--------------|-------------------------------|

E|-------------------------------|-------------------------------|

many, many, times be- fore It's not

many



G|------- ------- ------- -------|------- ------- ------- -------|

D|-------------------------------|7---7---7---7---7---7---7------|

A|5-------5---5---5---5---5---5--|-------------------------------|

E|-------------------------------|-------------------------------|

like me to pre-tend, but I'll





G|------- ------- ------- -------|------- ------- ------- -------|

D|------------4---7-------4---7--|-------------------------------|

A|5------------------------------|----------------9--------------|

E|-------------------------------|7-----------7-----------7------|

get you, I'll get you in the end Yes, I





G|------- ------- ------- -------|------- ------- ------- -------|

D|5-----------5-----------5------|7-----------7---7--------------|

A|----------------5--------------|-------------------------------|

E|-------------------------------|-------------------------------|

will, I'll get you in the end, oh,





G|------- ------- ------- -------|------- ------- ------- -------|

D|------------4---7-------4------|7-----------7---7--------------|

A|5------------------------------|-------------------------------|

E|-------------------------------|-------------------------------|

yeah, oh, yeah! Oh,



Outro:

G|------- ------- ------- -------|------- ------- ------- -------|

D|------------4---7-------4------|7-----------7---7--------------|

A|5------------------------------|-------------------------------|

E|-------------------------------|-------------------------------|

yeah, oh, yeah! Woah,





G|------- ------- ------- -------|------- ------- ------- -------|

D|-------------------------------|-------------------------------|

A|5------------------------------|-------------------------------|

E|-------------------------------|-------------------------------|

yeah!



Please e-mail me for any corrections.Added by tabs-database.com and our distinguished partners
Get this song at amazon.com      Ebay     Ringtones Ringtones  


Learn to play: Songwriting, Piano, Harmonica, Guitar

Related Beatles Tabs

Like Dreamer Do tabs
Penny Lane tabs
Hello~c Goodbye tabs
Day Tripper Btab tabs
Dr robert tabs
I Dont Want To Spoil tabs
Goldenslumbers tabs
Let It Be tabs
Magical Mystery Tour tabs
I Feel Fine tabs
One After 909 tabs
Baby Its You tabs
Its Only Love tabs
She Loves You tabs
Get Back tabs
Lucy In The Sky tabs
All You Need Is Love Bass tabs
The Night Before tabs
The Counting Story Of Bungalow Bill tabs
Norwegianwood tabs


Guitar Tabs









All tabs are property and copyright of their owners. All tabs provided for educational purposes only. Privacy Policy, DMCA