Beatles

If I Fell Bass Tabs



More from Beatles

Beatles Tabs
Beatles Chords
Beatles Bass
Beatles Lyrics



+++++++++++++++++++++++++

| The Beatles- If I Fell|

+++++++++++++++++++++++++



(John Lennon/Paul McCartney)



EADG



"Then just.. Holding hands.."

1.

G|-------------------|

D|-22222222-77777777-|

A|-------------------|

E|-------------------|



Verse

"If I give my heart to you.." x2

2.

G|------------------------------------|

D|-0--0-2--2-4--4-4--4-2--2-2--7--7-7-|

A|------------------------------------|

E|------------------------------------|



3.

G|-----------------|

D|-0--0-0---8--8-7-|

A|-----------------|

E|-----------------|



"If I trust in you.." x2

4.

G|------------------------------------|

D|-0--0-2--2-4--4-4--4-2--2-2--7--7-7-|

A|------------------------------------|

E|------------------------------------|



"Cause I couldn't stand the pain.."

5.

G|--------------------------------------------------------|

D|-0--0-0--0--0-0--5--5-5--5--5-5--5--5-5--0--0-0--7--7-7-|

A|--------------------------------------------------------|

E|--------------------------------------------------------|



"So I hope you see.." x2

6.

G|------------------------------------|

D|-0--0-2--2-4--4-4--4-2--2-2--7--7-7-|

A|------------------------------------|

E|------------------------------------|



"Cause I couldn't stand the pain.."

7.

G|--------------------------------------------------------|

D|-0--0-0--0--0-0--5--5-5--5--5-5--5--5-5--0--0-0--7--7-7-|

A|--------------------------------------------------------|

E|--------------------------------------------------------|



"So I hope you see.." x2

8.

G|------------------------------------|

D|-0--0-2--2-4--4-4--4-2--2-2--7--7-7-|

A|------------------------------------|

E|------------------------------------|



"If I fell in love with you.."

9.

G|----------------------------------------|

D|-0--0-0--5--5-7--7-0--0-0--5--5-7--7-0~-|

A|----------------------------------------|

E|----------------------------------------|



Great song :D

Please rate ;)



+++++++++++++++++++++++++++++++++++

Lyrics



If I fell in love with you

Would you promise to be true

And help me understand

Cos'I've been in love before

And I found that love was more

Than just holding hands



If I give my heart to you

I must be sure

From the very start

That you would love me more than her



If I trust in you oh please

Don't run and hide

If I love you too oh please

Don't hurt my pride like her



Cos' I coudn't stand the pain

And I would be sad

If our new love

Was in vain



So I hope you see that I

Would love to love you

And that she Will Cry

When she learns we are two..



If I fell in love with you..

++++++++++++++++++++++++++++++++++++++



+++++++++++++++++++++++++++++++

|RaiLeff |

|webmaster at tabs-database.com.com|

+++++++++++++++++++++++++++++++Added by tabs-database.com and our distinguished partners
Get this song at amazon.com      Ebay     Ringtones Ringtones  


Learn to play: Songwriting, Piano, Harmonica, Guitar

Related Beatles Tabs

Hey Jude tabs
Fixing A Hole tabs
Tickettoride tabs
You Know My Name tabs
We Can Work It Out tabs
All Together Now tabs
Lovely Rita tabs
Maggie Mae tabs
Revolution tabs
Cometogether tabs
I Want You tabs
Band On The Run tabs
The fool on a hill tabs
Got To Get You Into My Life tabs
Dont Ever Change tabs
Your Mother Should Know tabs
The Long And Winding Road tabs
And I Love Her tabs
Good Night tabs
Piggies tabs


Guitar Tabs









All tabs are property and copyright of their owners. All tabs provided for educational purposes only. Privacy Policy, DMCA

Online converter - videoconverter.com