Beatles

I m a loser Bass Tabs



More from Beatles

Beatles Tabs
Beatles Chords
Beatles Bass
Beatles Lyrics

-------------------------------------------------------------------------------
		    IM A LOSER  The Beatles
-------------------------------------------------------------------------------

Tabbed By : Val Strode
e-mail: vstrode@hotmail.com

(bass rest)

            Am    D          Am    D                Am              Fmj7   D
   Im a los -  er. Im a los -  er, and Im not what I appear to be.

G------------------|---------------|-----------------|----------|-----------------|-------------7---|-------------------|-----------|-
D--5------------5-|---------------|-3-------------3-|-5----5-|--5-----------5-|---------7--9----|--3--------35-|-5--5---4-|-
A---------5--------|-5----------5-|------3----------|----5----|-------5--------|--5---------------|--------3---------|------5----|-
E------------------|-------5-------|-----------------|----------|-----------------|------------------|------------------|------------|-
      G            D                 Fadd9           G         G                  D                   Fadd9        G
  1. Of all the love I have won or have  lost.     There is one  love I should never have crossed.
  2. Although I laugh and I act like a clown.      Beneath this mask, I am wear - ing a   frown.
  3. What have I done to deserve such a fate.      I   re    al -  ize,    I have left    it   too  late.

G--------------------|---------------|--------------|----------|--------------------------|---------------------|------------------|--------
D-5---------------5-|---------------|---3-------3-|-5--------|---5--------------5------|---------------------|------3--------3-|----5--
A---------5---------|--5--------5---|--------3----|----5--5--|---------5---------------|-5----------------5-|-----------3-----|--------
E--------------------|------5--------|--------------|-----------|-------------------------|-------------5-------|-----------------|--------
      G                 D                  Fadd9  G                                       D                           Fadd9      G
  1. She was a    girl in a mill-ion, my friend.     I should have     known, she would win in the end.
  2. My tears are falling  like rain from the sky. Is it        for        her,       or   my  self  that I cry.
  3. And so its true pride comes before a fall.    Im telling         you,          so that you wont lose all.

G-----|--------------------|------------------------|----------------------|-------------------------|-------------|-
D-----|--------------------|------------------------|----------------------|-------------------------|---5-4-2-0-|-
A--5-|-----0234-|-5-3-2----0-----|-0--2--3-4-|-5----3---2----0------|-------------|-
E-----|---------------------|------------------------|----------------------|------------------------|-------------|-
              Am    D                        Am                             D                         G --Em
     Im a los  -  er,            and I  lost    someone whos near to me. Im a los-er,

G------------------------|----------------------|-------------|-----------
D-2----0----------------|----------------------|-3----2---0-|-----------
A-----------3-----2-----|-0----2------30--|-------------|-----------
E------------------------|----------------------|--------------|-----------
                                Am                  F         D
              and Im     not what I ap - pear to be.

harmonica solo
G-----------------|--------------|---------------|--------------|-----------------|----------7---|-----------------|-------------
D---55--------|--------------|-3--3----3-5--|-5--5-----4-|-5--5-------5--|-----7-9------|-3------3-5----|--5----------
A----------5---5-|-5--5-----5-|--------3-------|--------5----|---------5------|-5------------|-----3-----------|----------5--
E-----------------|--------5----|----------------|--------------|-----------------|--------------|------------------|-------------
      G              D             Fadd9      G                                   D            Fadd9           G

G--------------|-----------|-----------|-------------|-------------|--------------|-------------|-------------|--------
D--------------|-----------|-----------|-------------|-5-4-2-0---|-2-0---------|-------------|-3-2-0-0---|--------
A-0-2-3-4----|-5-3-2-0-|-0-2-3-4-|-5-3-2-0---|-------------|------3-2----|-0-2-3-0---|-------------|--------
E--------------|-----------|-----------|-------------|-------------|--------------|-------------|-------------|--------
    Am          D          Am       D            G           Em           Am         F    D


| s  slide
| /  repeat phrase
| h  hammer-on
| p  pull-off
| ~  vibrato
| +  harmonic
| x  Mute note
| | Measure marker
===============================================================================
Get this song at amazon.com      Ebay     Ringtones Ringtones  


Learn to play: Songwriting, Piano, Harmonica, Guitar

Related Beatles Bass Tabs

Paperback Writer bass
Dr robert bass
Ill Cry Instead bass
The End bass
Ob La Di Ob La Da bass
I m a looser bass
Getting Better bass
When im 64 bass
Chains bass
I ll be back bass
Obladi Oblada bass
Glass Onion bass
In My Life bass
Octopus Garden bass
Drive My Car bass
This Boy bass
A Hard Days Night bass
All My Loving bass
Ticket To Ride bass
Sgt pepper bass


Guitar Tabs









All tabs are property and copyright of their owners. All tabs provided for educational purposes only. Privacy Policy, DMCA