Beatles

I Want You Bass Tabs



More from Beatles

Beatles Tabs
Beatles Chords
Beatles Bass
Beatles Lyrics

Date: Sat, 22 Mar 2003 21:13:37 +0100 (CET)
From: Jan Björklund 
Subject: b/beatles/i_want_you.btab

beatles/i_wan't_you(she's_so_heavy).btab

Basstab by Jan Bjorklund, Finland; 
jani_bjorklund@yahoo.se 
You are welcome to request for basstabs!
Bienvenidos a pedirme transcripciones para el bajo!
Be sure to use a monospaced font!

TablEdited by Jan Bjorklund
Tuning : E A D G 	Time Signature: 4/4

 |       |       |        |       |       |        
|------------------------|------------------------|
|------------------------|------------5-------7---|
|5-----------7-----------|8-----------------------|
|------------------------|------------------------|

 |       |       |        |       |       |        
|------------9/5---------|------------------------|
|------------------------|------------------------|
|7---7---7-------3---2---|--------------------5---|
|------------------------|6---6---6-------8-------|

 |       |       |        |       |       |       |        
|------------------------|--------------------------------|
|------------7-----------|--------------------------------|
|------------------------|--------------------------------|
|5---5---5---------------|----------------5---5---5-------|

 |       |       |       |        |       |       |       |        
|--------------------------------|--------------------------------|
|--------------------------------|--------------------------------|
|--------------------------------|--------------------------------|
|--------------------------------|--------------------------------|

 |       |       |       |        |       |       |       |        
|--------------------------------|--------------------------------|
|--------------------------------|--------------------------------|
|--------------------------------|--------------------------------|
|5---5---5---5-------------------|--------------------------------|

 |       |       |       |        |       |       |       |        
|--------------------------------|--------------------------------|
|--------------------------------|--------------------------------|
|--------------------------------|----------------3---------------|
|5---5---5-----------------------|5-----------------------5-------|

 |       |       |       |        |       |       |       |        
|--------------------------------|--------------------------------|
|----------------3-------3-------|5-------6-------7-------7-------|
|5-------5-----------------------|----------------------------5---|
|--------------------------------|--------------------------------|

 |       |       |        |       |       |       |        
|------------------------|--------------------------------|
|------------------------|----------------12--------------|
|------------------------|--------------------------------|
|5---5---5-5-5-8---5-8---|10----------------------10------|

 |       |       |       |        |       |       |       |        
|--------------------11--10------|--------------------------------|
|----------------------------12--|----------------12--------------|
|--------------------------------|------------------------1312----|
|10--10--10----------------------|10------------------------------|

 |       |       |       |        |       |       |       |        
|--------14--12--10--------------|--------------------------------|
|--------------------12------10--|----------------12------10------|
|--------------------------------|--------------------------------|
|10------------------------------|10------------------------------|

 |       |       |       |        |       |       |       |        
|----------------10/-8---7/--5---|--------------------------------|
|--------------------------------|----------------3---------------|
|--------------------------------|5-------------------------------|
|10--10--------------------------|--------------------------------|

 |       |       |        |       |       |       |        
|------------------------|--------------------------------|
|------------------0-1-2-|--------------------------------|
|3-------1---------------|--------------------------------|
|------------------------|0-------0---0---0---0---0---0---|

 |       |       |       |        |       |       |       |        
|----------------------9---7-----|--------------------------------|
|----5---------------9-------9---|--------------------------------|
|7-------9---8---7---------------|7---7---7---7---7---7---7---7---|
|--------------------------------|--------------------------------|

 |       |       |       |        |       |       |       |        
|----------------------9---7-----|--------------------------------|
|----5---------------9-------9---|--------------------------------|
|7-------9---8---7---------------|7---7---7---7---7---7---7---7---|
|--------------------------------|--------------------------------|

 |       |       |       |        |       |       |       |        
|9-------------------------------|--------------------------------|
|--------------------------------|7-------------------------------|
|--------------------------------|------------------------7-------|
|--------------------------------|----------------------------7---|

 |       |       |       |        |       |       |       |        
|--------------------------------|--------------------------------|
|--------------------------------|7-------------------------------|
|------------------------7-------|------------------------7-------|
|5-------------------------------|--------------------------------|

 |       |       |       |        |       |       |       |        
|--------5-----------------------|--------------------------------|
|7---7-------------------7/2-----|--------------------------------|
|--------------------------------|------------------------7-------|
|--------------------------------|5-------------------------------|

 |       |       |       |        |       |       |       |        
|--------------------------------|--------------------5-----------|
|7-------7-----------------------|------------------------7-------|
|------------------------7/3-----|--------------------------------|
|--------------------------------|5-------------------------------|

 |       |       |       |        |       |       |        
|--------------------------------|------------------------|
|--------------------------------|5---6---7-----7-7-------|
|5-------5-------8-------8-------|--------------------7---|
|--------------------------------|------------------------|

 |       |       |       |        |       |       |       |        
|--------------------------------|--------------------------------|
|--------------------------------|----------------12--1210--------|
|------------------------5-------|------------------------12------|
|5-------5---8-------5-----------|10------------------------------|

 |       |       |       |        |       |       |       |        
|----------------12/-10----------|--------------------------------|
|------------------------12------|----------------12----------7---|
|--------------------------------|--------------------------------|
|10--10--10----------------------|10------------------------------|

 |       |       |       |        |       |       |       |        
|----------------10--------------|--------------------------------|
|------------------------12------|----------------12--------------|
|--------------------------------|--------------------------------|
|10--10--10----------------------|10------------------------------|

 |       |       |       |        |       |       |       |        
|----------------10--------------|--------------------------------|
|------------------------12------|--------------------------------|
|--------------------------------|----------------8---------------|
|10--10--10----------------------|10------------------------------|

 |       |       |       |        |       |       |        
|--------------------------------|------------------------|
|--------------------------------|------------------------|
|--------------------------------|5-----7---7-7-7-7-7-7-7-|
|8---------------6---------------|--------0---------------|

 |       |       |       |        |       |       |       |        
|------------------------9-7-----|--------------------------------|
|----5---4---3-------9-------9---|--------------------------------|
|7---------------7---------------|7---7---7---7---7---7---7---7---|
|--------------------------------|--------------------------------|

 |       |       |       |        |       |       |       |        
|------------------------9-7-----|--------------------9---9---9---|
|----5---4---3-------9-------9---|--------------------------------|
|7---------------7---------------|7---7---7---7---7---------------|
|--------------------------------|--------------------------------|

 |       |       |       |        |       |       |        
|9/4-----------------------------|------------------------|
|--------------------------------|------------------------|
|--------------------------------|------------7-----------|
|--------------------------------|10--------5-------------|

 |       |       |        |       |       |        
|------------------------|--------1514------------|
|------------------------|------------149---------|
|8-----------10----------|------------------------|
|------------------------|12--------------8---7---|

 |       |       |        |       |       |        
|------------------------|------------------------|
|------------------------|------------7-----------|
|------------------------|----------------4---7---|
|6---------------8---10--|5-----------------------|

 |       |       |        |       |       |        
|------------------------|------------------------|
|------------------------|------------------------|
|5-----------7-----------|8-----------10------12--|
|------------------------|------------------------|

 |       |       |        |       |       |        
|--------191410----------|------------------------|
|------------------------|------------------------|
|------------------------|--------------------5---|
|12--------------8---7---|6---------------8-------|

 |       |       |        |       |       |        
|------------------------|------------------------|
|------------7-----------|------and so on...------|
|----4---7---------------|------------------------|
|5-----------------------|------------------------|



Transcribe! 6.0 transcription http://www.seventhstring.demon.co.uk/
Created with TablEdit http://www.tabledit.com/


_____________________________________________________
Get this song at amazon.com      Ebay     Ringtones Ringtones  


Learn to play: Songwriting, Piano, Harmonica, Guitar

Related Beatles Bass Tabs

Anna bass
Money live bass
And i love her corrected version bass
Taxman bass
Strawberry Fields Forever bass
Help bass
Revolution bass
Dr robert bass
Back In The Ussr bass
A Day In The Life bass
Youre gonna loose that girl bass
Come Together bass
Magical Mystery Tour bass
Nowhere Man bass
A Taste Of Honey bass
Drive My Car bass
When Im Sixty Four bass
In My Life bass
While My Guitar Gently Weeps bass
Ticket To Ride bass


Guitar Tabs









All tabs are property and copyright of their owners. All tabs provided for educational purposes only. Privacy Policy, DMCA

Online converter - videoconverter.com