Beatles

I Should Have Known Better Bass Tabs



More from Beatles

Beatles Tabs
Beatles Chords
Beatles Bass
Beatles Lyrics

I Should Have Known Better

The Beatles

Written by John Lennon and Paul McCartney; released on "A Hard Day's Night"

album



This song is from the film "A Hard Day's Night", and you can see them

playing it in a baggage car on a train. Quite funny :-)



Intro:

G|------- ------- ------- -------|------- ------- ------- -------|

D|5-------5-------------------4--|5-------5-------------------4--|

A|----------------5-------5------|----------------5---5---7------|

E|-------------------------------|-------------------------------|







G|------- ------- ------- -------|------- ------- ------- -------|

D|5-------5-------------------4--|5-------5----------------------|

A|----------------5---5---7------|----------------5-------7---5--|

E|-------------------------------|-------------------------------|

I



Verse:

G|------- ------- ------- -------|------- ------- ------- -------|

D|5-------5-------------------4--|5-------5-------------------4--|

A|----------------5---5---5------|----------------5---5---7------|

E|-------------------------------|-------------------------------|

should known

have



G|------- ------- ------- -------|------- ------- ------- -------|

D|5-------5-------------------4--|5-------5-------------------4--|

A|----------------5---5---5------|----------------5---5---7------|

E|-------------------------------|-------------------------------|

better with a girl like you, that I would





G|------- ------- ------- -------|------- ------- ------- -------|

D|5-------5-------------------4--|5-------5---4------------------|

A|----------------5---5---5------|----------------7-------7---5--|

E|-------------------------------|-------------------------------|

love every - thing you do, And I do,

that



G|------- ------- ------- -------|------- ------- ------- -------|

D|----------------5---5----------|----------------7-----------4--|

A|3-------3---------------3---4--|5-------5-----------5---7------|

E|-------------------------------|-------------------------------|

hey hey hey, and I do!





G|------- ------- ------- -------|------- ------- ------- -------|

D|5-------5-------------------4--|5-------5----------------------|

A|----------------5---5---5------|----------------5---5---7---5--|

E|-------------------------------|-------------------------------|

Wo- a - o - ah,



Verse:

G|------- ------- ------- -------|------- ------- ------- -------|

D|5-------5-------------------4--|5-------5-------------------4--|

A|----------------5---5---5------|----------------5---5---7------|

E|-------------------------------|-------------------------------|

I ne- ver re- a-





G|------- ------- ------- -------|------- ------- ------- -------|

D|5-------5-------------------4--|5-------5-------------------4--|

A|----------------5-------5------|----------------5---5---7------|

E|-------------------------------|-------------------------------|

lized what a kiss could be, this could





G|------- ------- ------- -------|------- ------- ------- -------|

D|5-------5-------------------4--|5-------5---4------------------|

A|----------------5-------5------|----------------7-------7---5--|

E|-------------------------------|-------------------------------|

on - ly happen to me Can't see,

you



G|------- ------- ------- -------|------- ------- ------- -------|

D|----------------5---5----------|----------------4---4-------4--|

A|3-------3---------------3---0--|2-------2---------------2------|

E|-------------------------------|-------------------------------|

can't see?

you

Bridge:

G|------- ------- ------- -------|------- ------- ------- -------|

D|2-------2---------------2------|----------------5--------------|

A|----------------2--------------|3-------3---------------3---5--|

E|-------------------------------|-------------------------------|

That when I tell you that I love





G|------- ------- ------- -------|------- ------- ------- -------|

D|5-------5---------------5------|----------------4---4-------3--|

A|----------------5--------------|2-------2----------------------|

E|-------------------------------|-------------------------------|

you, oh,





G|------- ------- ------- -------|------- ------- ------- -------|

D|2-------2-------------------2--|2-------2-------------------2--|

A|----------------2-------2------|----------------2-------2------|

E|-------------------------------|-------------------------------|

You're gon - na say you love me too,





G|------- ------- ------- -------|------- ------- ------- -------|

D/5-------5----------------------|5-------5-------5---3---2------|

A|----------------5---5---5---5--|----------------------------5--|

E|-------------------------------|-------------------------------|

oh,





G|------- ------- ------- -------|------- ------- ------- -------|

D|----------------5--------------|----------------7-----------4--|

A|3-----------------------3---4--|5-------5-----------5---7------|

E|-------------------------------|-------------------------------|

And when I ask you to be mine,





G|------- ------- ------- -------|------- ------- ------- -------|

D|5-------5---------------5---4--|-------------------------------|

A|----------------5---5----------|7-------7---------------7---5--|

E|-------------------------------|----------------7---7----------|







G|------- ------- ------- -------|------- ------- ------- -------|

D|----------------5---5----------|----------------7-----------4--|

A|3-------3---------------3---4--|5-------5-----------5---7------|

E|-------------------------------|-------------------------------|

You're gon - na say you love me too





G|------- ------- ------- -------|------- ------- ------- -------|

D|5-------5----------------------|5-------5----------------------|

A|----------------5---5---7---5--|----------------5---5---7---5--|

E|-------------------------------|-------------------------------|

So,



Verse:

G|------- ------- ------- -------|------- ------- ------- -------|

D|5-------5-------------------4--|5-------5-------------------4--|

A|----------------5-------5------|----------------5---5---7------|

E|-------------------------------|-------------------------------|

I should re- a

have



G|------- ------- ------- -------|------- ------- ------- -------|

D|5-------5-------------------4--|5-------5----------------------|

A|----------------5-------5------|----------------5---5---7---5--|

E|-------------------------------|-------------------------------|

lized a lot of things be fore, if this is





G|------- ------- ------- -------|------- ------- ------- -------|

D|5-------5-------------------4--|5-------5---4------------------|

A|----------------5---5---7------|----------------7-------7---5--|

E|-------------------------------|-------------------------------|

love, got to give me more, Give me more,

you've



G|------- ------- ------- -------|------- ------- ------- -------|

D|----------------5---5----------|----------------7-----------4--|

A|3-------3---------------3---4--|5-------5-----------5---7------|

E|-------------------------------|-------------------------------|

hey hey hey, give me more!





G|------- ------- ------- -------|------- ------- ------- -------|

D|5-------5-------------------4--|5-------5---------------7------|

A|----------------5---5---7------|----------------5---5-------5--|

E|-------------------------------|-------------------------------|





Verse (solo):

G|------- ------- ------- -------|------- ------- ------- -------|

D|5-------5-------------------4--|5-------5-------5--------------|

A|----------------5---5---5------|--------------------7---5------|

E|-------------------------------|----------------------------7--|







G|------- ------- ------- -------|------- ------- ------- -------|

D|5-------5-------------------4--|5-------5-------------------4--|

A|----------------5---5---5------|----------------5---5---5------|

E|-------------------------------|-------------------------------|







G|------- ------- ------- -------|------- ------- ------- -------|

D|5-------5-------------------4--|5-------5---4------------------|

A|----------------5---5---5------|----------------7-------7---5--|

E|-------------------------------|-------------------------------|







G|------- ------- ------- -------|------- ------- ------- -------|

D|----------------5--------------|----------------7-----------4--|

A|3-------3---------------3---4--|5-------5-----------5---7------|

E|-------------------------------|-------------------------------|







G|------- ------- ------- -------|------- ------- ------- -------|

D|5-------5-------------------4--|5-------5-------------------4--|

A|----------------5---5---5------|----------------5---5---7------|

E|-------------------------------|-------------------------------|

Wo- a - o - ah,



Verse:

G|------- ------- ------- -------|------- ------- ------- -------|

D|5-------5-------------------4--|5-------5-------------------4--|

A|----------------5---5---5------|----------------5---5---7------|

E|-------------------------------|-------------------------------|

I ne- ver re- a-





G|------- ------- ------- -------|------- ------- ------- -------|

D|5-------5-------------------4--|5-------5-------------------4--|

A|----------------5---5---5------|----------------5---5---7------|

E|-------------------------------|-------------------------------|

lized what a kiss could be, this could





G|------- ------- ------- -------|------- ------- ------- -------|

D|5-------5-------------------4--|5-------5----------------------|

A|----------------5---5---7------|----------------7-------7---5--|

E|-------------------------------|-------------------------------|

on - ly happen to me Can't see,

you



G|------- ------- ------- -------|------- ------- ------- -------|

D|----------------5---5----------|----------------4---4-------4--|

A|3-------3---------------3------|2-------2---------------2------|

E|-------------------------------|-------------------------------|

can't see?

you

Bridge:

G|------- ------- ------- -------|------- ------- ------- -------|

D|2-------2---------------2------|----------------5--------------|

A|----------------2--------------|3-------3---------------3------|

E|-------------------------------|-------------------------------|

That when I tell you that I love





G|------- ------- ------- -------|------- ------- ------- -------|

D|5-------5---------------5------|----------------4---4-------3--|

A|----------------5---5----------|2-------2----------------------|

E|-------------------------------|-------------------------------|

you, oh,





G|------- ------- ------- -------|------- ------- ------- -------|

D|2-------2---------------2------|2-------2----------------------|

A|----------------2--------------|----------------2-------2------|

E|-------------------------------|-------------------------------|

You're gon - na say you love me too,





G|------- ------- ------- -------|------- ------- ------- -------|

D|5-------5-------------------4--|5-------3-------2--------------|

A|----------------5-------5------|------------------------5------|

E|-------------------------------|-------------------------------|

oh,





G|------- ------- ------- -------|------- ------- ------- -------|

D|----------------5---5----------|----------------7-----------4--|

A|3-------3-------------------3--|5-------5-----------5---7------|

E|-------------------------------|-------------------------------|

And when I ask you to be mine,





G|------- ------- ------- -------|------- ------- ------- -------|

D|5-------5---------------5---4--|-------------------------------|

A|----------------5---5----------|7-------7---------------7---5--|

E|-------------------------------|----------------7--------------|







G|------- ------- ------- -------|------- ------- ------- -------|

D|----------------5---5----------|----------------7-----------4--|

A|3-------3---------------3------|5-------5-----------5---7------|

E|-------------------------------|-------------------------------|

You're gon - na say you love me too





G|------- ------- ------- -------|------- ------- ------- -------|

D|5-------5-------------------4--|5-------5-------------------4--|

A|----------------5---5---7------|----------------5---5---7------|

E|-------------------------------|-------------------------------|

You love me too



Outro:

G|------- ------- ------- -------|------- ------- ------- -------|

D|5-------5-------------------4--|5-------5-------------------4--|

A|----------------5-------5------|----------------5---5---7------|

E|-------------------------------|-------------------------------|

You love me too

repeat and fade...



Please e-mail me for any corrections.Added by tabs-database.com and our distinguished partners
Get this song at amazon.com      Ebay     Ringtones Ringtones  


Learn to play: Songwriting, Piano, Harmonica, Guitar

Related Beatles Tabs

If Youve Got Trouble tabs
No Reply tabs
Gooddaysunshine tabs
Sexy Sadie tabs
For No One tabs
We Can Work It Out tabs
Acrosstheuniverse tabs
Askmewhy tabs
Long Tall Sally Bass Bass tabs
Magical Mystery Tour tabs
Hey Jude tabs
Bigger Than The Beatles tabs
Obladioblada tabs
Tomorrow Never Knows tabs
It Wont Be Long tabs
One After 909 tabs
Hold Me Tight tabs
Little Child Bass tabs
What Youre Doing tabs
Dont Let Me Down tabs


Guitar Tabs









All tabs are property and copyright of their owners. All tabs provided for educational purposes only. Privacy Policy, DMCA