Beatles

I Need You Bass Tabs



More from Beatles

Beatles Tabs
Beatles Chords
Beatles Bass
Beatles Lyrics

I Need You

The Beatles

Written by George Harrison; released on "Help!" album



This one is among the world's greatest love songs for me, but sometimes it's

so painful to listen. George uses a volume-tone pedal, and listen to Paul's

bassline :-)



Intro:

G|------- ------- ------- -------|------- ------- ------- -------|

D|-------------------------------|-------------------------------|

A|-------------------------------|-------------------------------|

E|-------------------------------|--------------------0---0---0--|





Verse:

G|------- ------- ------- -------|------- ------- ------- -------|

D|7-----------7---------------7--|----------------7--------------|

A|----------------7--------------|5-----------5---------------5--|

E|-------------------------------|-------------------------------|

You don't re a - lize how much I need





G|------- ------- ------- -------|------- ------- ------- -------|

D|7------------------------------|7------------------------------|

A|----7-------7---7---7---7------|----7-----------7-----------7--|

E|-------------------------------|-------------------------------|

you,





G|------- ------- ------- -------|------- ------- ------- -------|

D|7------------------------------|----------------7--------------|

A|----------------7--------------|5------------------------------|

E|-------------------------------|-------------------------------|

Love you all the time, and ne - ver leave





G|------- ------- ------- -------|------- ------- ------- -------|

D|7------------------------------|7---------------7-------6------|

A|----7-----------7--------------|----7--------------------------|

E|-------------------------------|-------------------------------|

you Please,





G|------- ------- ------- -------|------- ------- ------- -------|

D|4-----------------------4------|----------------6--------------|

A|----------------4--------------|4-----------------------4------|

E|-------------------------------|-------------------------------|

come on back to me, I'm

Oooooooooooooooooooooooooooooooooooo



G|------- ------- ------- -------|------- ------- ------- -------|

D|4-------4-------------------4--|-------------------------------|

A|----------------4--------------|2-----------------------2------|

E|-------------------------------|------------2---2--------------|

lonely as can be I need

Oooooooooooooooooooooooooooooooooooooooooooooooooooooooo



G|2------ ------- ------- -------|2------ ------- ------- -------|

D|----2-----------2--------------|----2-----------2-----------2--|

A|-------------------------------|-------------------------------|

E|-------------------------------|-------------------------------|

you



Verse:

G|2------ ----2-- ------- ----2--|------- ------- ------- -------|

D|----------------2--------------|----------------7--------------|

A|-------------------------------|5-----------5---------------5--|

E|-------------------------------|-------------------------------|

Said you had a thing or two to tell





G|------- ------- ------- -------|------- ------- ------- -------|

D|7------------------------------|7------------------------------|

A|----7-----------7-----------7--|----7-----------7--------------|

E|-------------------------------|-------------------------------|

me,





G|------- ------- ------- -------|------- ------- ------- -------|

D|7---------------------------7--|----------------7--------------|

A|----------------7--------------|5-----------5---------------5--|

E|-------------------------------|-------------------------------|

How was I to know you would up - set





G|------- ------- ------- -------|------- ------- ------- -------|

D|7------------------------------|7---------------7-------6------|

A|----7-----------7-----------7--|-------------------------------|

E|-------------------------------|-------------------------------|

me? I





G|------- ------- ------- -------|------- ------- ------- -------|

D|4---------------------------4--|----------------6--------------|

A|----------------4--------------|4-----------------------4------|

E|-------------------------------|-------------------------------|

didn't re - a - lize, as

Oooooooooooooooooooooooooooooooooooo



G|------- ------- ------- -------|------- ------- ------- -------|

D|4-------4----------------------|-------------------------------|

A|----------------4-----------3--|2-----------------------2------|

E|-------------------------------|----------------2-----------2--|

I looked in your eyes you told

Oooooooooooooooooooooooooooooooooooooooooooooooooooooooo



G|2------ ------- 2------ -------|2------ 2------ 2------ 2------|

D|------------2-----------2------|-------------------------------|

A|-------------------------------|-------------------------------|

E|-------------------------------|-------------------------------|

me Oh, yes, you



Bridge:

G|------- ------- ------- -------|------- ------- ------- -------|

D|----------------7--------------|----------------9--------------|

A|5---------------------------5-/|7-----------------------7------|

E|-------------------------------|-------------------------------|

told me you don't want my loving any more

Ooooooooooooooooooooooooooooooooooooooooooooooooooooooooooooooo



G|------- ------- ------- -------|------- ------- ------- -------|

D|7---7---7---7---7---7----------|7-------7-------7-------7------|

A|------------------------7------|-------------------------------|

E|-------------------------------|-------------------------------|

That's when it

ooo



G|------- ------- ------- -------|------- ------- ------- -------|

D|----------------7--------------|----------------9--------------|

A|5-----------5-----------5------|7-----------7-----------7---\--|

E|-------------------------------|-------------------------------|

hurt me, I'm fee- ling like this, I

Ooooooooooooooooooooooooooooooooooooooooooooooooooooooooooooooo



G|------- ------- ------- -------|------- ------- ------- -------|

D|--------4----------------------|2---2---2---2---2---2---2------|

A|2-----------------------2---2--|-------------------------------|

E|------------2---2---2----------|-------------------------------|

just can't go on a - ny more

oooooooooooooooooooooooooooooooooooooooooooooooo



G|------- ------- ------- -------|

D|2-------2---2---2-------2------|

A|-------------------------------|

E|-------------------------------|





Verse:

G|2------ ----2-- ------- ----2--|------- ------- ------- -------|

D|----------------2--------------|----------------7--------------|

A|-------------------------------|5-----------5------------------|

E|-------------------------------|-------------------------------|

Please, re- mem - ber how I feel a - bout





G|------- ------- ------- -------|------- ------- ------- -------|

D|7------------------------------|7------------------------------|

A|----7-----------7-------7------|----7-----------7-------7------|

E|-------------------------------|-------------------------------|

you,





G|------- ------- ------- -------|------- ------- ------- -------|

D|7---------------------------7--|----------------7--------------|

A|----------------7--------------|5-----------5---------------5--|

E|-------------------------------|-------------------------------|

I could ne - ver real - ly live with - out





G|------- ------- ------- -------|------- ------- ------- -------|

D|7------------------------------|7---------------7-------6------|

A|------------7-----------7------|-------------------------------|

E|-------------------------------|-------------------------------|

you Please,





G|------- ------- ------- -------|------- ------- ------- -------|

D|4---------------------------4--|----------------6--------------|

A|----------------4--------------|4-----------4-----------4------|

E|-------------------------------|-------------------------------|

come on back, and see just

Oooooooooooooooooooooooooooooooooooo



G|------- ------- ------- -------|------- ------- ------- 4------|

D|4------------------------------|-------------------------------|

A|----------------4-----------3--|2-----------2------------------|

E|-------------------------------|----------------2--------------|

what you mean to me, I need

Oooooooooooooooooooooooooooooooooooooooooooooooooooooooo



G|------- ------- ------- -------|------- ------- ------- -------|

D|7-----------7------------------|7-------7-------7-------7------|

A|----------------7-----------7--|-------------------------------|

E|-------------------------------|-------------------------------|

you But when you



Bridge:

G|------- ------- ------- -------|------- ------- ------- -------|

D|----------------7--------------|-------------------------------|

A|5-----------------------5---/--|7-----------7-----------7------|

E|-------------------------------|----------------7--------------|

told me you don't want my loving any more

Ooooooooooooooooooooooooooooooooooooooooooooooooooooooooooooooo



G|------- ------- ------- -------|------- ------- ------- -------|

D|7-------7----------------------|7-----------7---7-------7------|

A|----------------7-------7------|-------------------------------|

E|-------------------------------|-------------------------------|

That's when it

ooo



G|------- ------- ------- -------|------- ------- ------- -------|

D|----------------7--------------|-------------------------------|

A|5-----------5-----------5---/--|7---------------7-------5---4--|

E|-------------------------------|------------7------------------|

hurt me, I'm fee- ling like this, I

Ooooooooooooooooooooooooooooooooooooooooooooooooooooooooooooooo



G|------- ------- ------- -------|------- ------- ------- -------|

D|------------4---4--------------|-------------------------------|

A|2-----------------------2------|2-/-7-------7------------------|

E|-------------------------------|----------------7-------7------|

just can't go on a - ny more

oooooooooooooooooooooooooooooooooooooooooooooooo



G|------- ------- ------- -------|

D|-------------------------------|

A|7---------------7-------5---4--|

E|-------------------------------|





Verse:

G|------- ------- ------- -------|------- ------- ------- -------|

D|7-----------7---------------7--|----------------7--------------|

A|----------------7--------------|5-----------5---------------5--|

E|-------------------------------|-------------------------------|

Please, re- mem - ber how I feel a - bout





G|------- ------- ------- -------|------- ------- ------- -------|

D|----7-----------------------7--|7------------------------------|

A|----------------7--------------|------------7---7--------------|

E|5------------------------------|-------------------------------|

you,





G|------- ------- ------- -------|------- ------- ------- -------|

D|7-----------7---------------7--|----------------7--------------|

A|----------------7--------------|5-----------5---------------5--|

E|-------------------------------|-------------------------------|

I could ne - ver real - ly live with - out





G|------- ------- ------- -------|------- ------- ------- -------|

D|7------------------------------|7---------------7-------6------|

A|----7-----------7-----------7--|----7--------------------------|

E|-------------------------------|-------------------------------|

you Please,





G|------- ------- ------- -------|------- ------- ------- -------|

D|4-----------4---------------4--|----------------6--------------|

A|----------------4--------------|4-----------------------4------|

E|-------------------------------|-------------------------------|

come on back, and see just

Oooooooooooooooooooooooooooooooooooo



G|------- ------- ------- -------|------- ------- ------- -------|

D|4---4--------------------------|-------------------------------|

A|----------------4--------------|2-----------2-----------2------|

E|-------------------------------|----------------2-----------2--|

what you mean to me, I need

Oooooooooooooooooooooooooooooooooooooooooooooooooooooooo



G|2------ ------- 2------ 2------|2------ ------- 2------ 1---0--|

D|------------2------------------|------------2------------------|

A|-------------------------------|-------------------------------|

E|-------------------------------|-------------------------------|

you I need



Outro:

G|------- ------- ------- -------|------- ------- ------- -------|

D|4-----------4---------------2--|4---------------4-------2------|

A|----------------4-------4------|------------4------------------|

E|-------------------------------|-------------------------------|

you I need





G|------- ------- ------- -------|------- ------- ------- -------|

D|----------------7--------------|----------------7--------------|

A|5-----------5---------------4--|5-----------5-----------5------|

E|-------------------------------|-------------------------------|

you





G|------- ------- ------- -------|------- ------- ------- -------|

D|7-----------7------------------|7---7-----------7--------------|

A|----------------7-------7------|-------------------------------|

E|-------------------------------|-------------------------------|



Please e-mail me for any corrections, or write a comment.Added by tabs-database.com and our distinguished partners
Get this song at amazon.com      Ebay     Ringtones Ringtones  


Learn to play: Songwriting, Piano, Harmonica, Guitar

Related Beatles Tabs

Mother Natures Son tabs
Yellowsubmarine tabs
The Happy Rishikesh Song tabs
Tell Me Why tabs
Golden Slumbers tabs
Hideyourloveaway tabs
Think For Yourself tabs
Nobodyiknow tabs
Any Time At All tabs
Drive My Car tabs
Real Love tabs
Seik Or Araby tabs
__daytripper tabs
Blackbird Btab tabs
Fool On The Hill tabs
Ladymadonna tabs
All Day & All Of The Night tabs
Across The Universe 2 tabs
Oh~e Darling tabs
Whilemyguitargentlyweeps tabs


Guitar Tabs









All tabs are property and copyright of their owners. All tabs provided for educational purposes only. Privacy Policy, DMCA