Beatles

Here There And Everywhere Bass Tabs



More from Beatles

Beatles Tabs
Beatles Chords
Beatles Bass
Beatles Lyrics

Here, There, And Everywhere

The Beatles

Written by John Lennon and Paul McCartney; released on "Revolver" album.



A wonderful love song!



Intro:

G|-------------------------------------|-----------------------------|

D|-------------------------------------|-----------------------------|

A|-------------------------------------|-----------------------------|

E|3---------------7--------------------|6----------------------------|

To lead a better life, I need my love to be

Oooooooooooooooooooooooooooooooo ooooooooooooooooooooooooooooooo



G|------- ------- 7------ -------|

D|7---------------------------5--|

A|-------------------------------|

E|-------------------------------|

here

oooooooooooooooooooooooo

Verse:

G|------- ------- ------- -------|4------ ------- 5------ -------|

D|5---------------7--------------|-------------------------------|

A|-------------------------------|-------------------------------|

E|-------------------------------|-------------------------------|

Here, making each day of the year,

Oooooooooooooooooooooooooooooooooooooooooooooooo



G|------- ------- ------- -------|4------ ------- 5------ -------|

D|5---------------7--------------|-------------------------------|

A|-------------------------------|-------------------------------|

E|-------------------------------|-------------------------------|

changing my life with a wave

Oooooooooooooooooooooooooooooooooooooooooooooooo



G|------- ------- 4------ -------|------- ------- 4------ -------|

D|4------------------------------|4------------------------------|

A|-------------------------------|-------------------------------|

E|-------------------------------|-------------------------------|

of her hand, No- bo- dy can de- ny

Oooooooooooooooooooooooo Oooooooooooooooooooooooo



G|------- ------- ------- -------|------- ------- 7------ -------|

D|----------------7--------------|7------------------------------|

A|7------------------------------|-------------------------------|

E|-------------------------------|-------------------------------|

that there's something there

Ooooooooooooooooooooooooooooooooooooooooooooooooooooooooooooooo

Verse:

G|------- ------- ------- -------|4------ ----4-- 5------ -------|

D|5---------------7--------------|-------------------------------|

A|-------------------------------|-------------------------------|

E|-------------------------------|-------------------------------|

There, running my hands through her hair,

Oooooooooooooooooooooooooooooooooooooooooooooooo



G|------- ------- ------- -------|4------ ----4-- 5------ -------|

D|5---------------7--------------|-------------------------------|

A|-------------------------------|-------------------------------|

E|-------------------------------|-------------------------------|

both of us thin - king how good

Oooooooooooooooooooooooooooooooooooooooooooooooo



G|------- ------- 4------ -------|------- ------- 4------ -------|

D|4------------------------------|4------------------------------|

A|-------------------------------|-------------------------------|

E|-------------------------------|-------------------------------|

it can be, Someone is speaking, but

Oooooooooooooooooooooooo Oooooooooooooooooooooooo



G|------- ----9-- ------- -------|------- ----9-- 7------ -------|

D|----------------7-----------7--|7-------7----------------------|

A|7------------------------------|------------------------8------|

E|-------------------------------|-------------------------------|

she doesn't know he's there I want her

Ooooooooooooooooooooooooooooooooooooooooooooooooooooooooooooooo

Bridge:

G|------- ------- ------- -------|5------ ----5-- 7------ 7------|

D|----------------5--------------|-------------------------------|

A|-------------------------------|-------------------------------|

E|6------------------------------|-------------------------------|

everywhere, and if she's beside me, I know I need





G|------- ------- ------- -------|5------ ----5-- 7------ 7------|

D|5-----------5---5---5---5---5--|-------------------------------|

A|-------------------------------|-------------------------------|

E|-------------------------------|-------------------------------|

ne- ver care, But to love her is to need her

Verse:

G|------- ------- ------- -------|4------ ----4-- 5------ -------|

D|5-----------5---7-----------7--|-------------------------------|

A|-------------------------------|-------------------------------|

E|-------------------------------|-------------------------------|

eve - ry- where, knowing that love is to share,

Oooooooooooooooooooooooooooooooooooooooooooooooo



G|------- ------- ------- -------|4------ ----4-- 5-----5 -------|

D|5-----------5---7-----------7--|------------------------7---5--|

A|-------------------------------|-------------------------------|

E|-------------------------------|-------------------------------|

each one belie - ving that love

Oooooooooooooooooooooooooooooooooooooooooooooooo



G|------- ------- 4------ -------|------- ------- 4------ -------|

D|4-----------4------------------|4-----------4------------------|

A|-------------------------------|-------------------------------|

E|-------------------------------|-------------------------------|

ne- ver dies, Watching her eyes, and

Oooooooooooooooooooooooo Oooooooooooooooooooooooo



G|------- ------- ------- -------|------- --4-5-- 7------ -------|

D|----------------7--------------|7-------7----------------------|

A|7------------------------------|------------------------8------|

E|-------------------------------|-------------------------------|

hoping I'm al - ways there I want her

Ooooooooooooooooooooooooooooooooooooooooooooooooooooooooooooooo

Bridge:

G|------- ------- ------- -------|5------ ----5-- 7------ -------|

D|8---------------5--------------|-------------------------------|

A|-------------------------------|-------------------------------|

E|-------------------------------|-------------------------------|

everywhere, and if she's beside me, I know I need





G|------- ------- ------- -------|5------ ----5-- 7------ -------|

D|5-----------5---5-----------5--|-------------------------------|

A|-------------------------------|-------------------------------|

E|-------------------------------|-------------------------------|

ne- ver care, But to love her is to need her

Verse:

G|------- ------- ------- -------|------- ------- ------- -------|

D|5-----------5---7-------7------|9-----------9---10------10--\--|

A|-------------------------------|-------------------------------|

E|-------------------------------|-------------------------------|

eve - ry- where, knowing that love is to share,

Oooooooooooooooooooooooooooooooooooooooooooooooo



G|------- ------- ------- -------|4------ ----4-- 5------ -------|

D|5-----------5---7-----------7--|-------------------------------|

A|-------------------------------|-------------------------------|

E|-------------------------------|-------------------------------|

each one belie - ving that love

Oooooooooooooooooooooooooooooooooooooooooooooooo



G|------- ------- 4------ -------|------- ------- 4------ -------|

D|4-----------4------------------|4-----------4------------------|

A|-------------------------------|-------------------------------|

E|-------------------------------|-------------------------------|

ne- ver dies, Watching her eyes, and

Oooooooooooooooooooooooo Oooooooooooooooooooooooo



G|------- ------- ------- -------|------4 5------ 7------ 7------|

D|----------------7-----------7--|7-----------7------------------|

A|7-----------7------------------|-------------------------------|

E|-------------------------------|-------------------------------|

hoping I'm al - ways there I will be

Ooooooooooooooooooooooooooooooooooooooooooooooooooooooooooooooo

Outro:

G|------- ------- ------- -------|4------ ----4-- 5------ ----5--|

D|5-----------5---7-----------7--|-------------------------------|

A|-------------------------------|-------------------------------|

E|-------------------------------|-------------------------------|

there, and eve - ry- where,

Ooooooooooooooooooooooooooooooooooooooooooooooooooooooooooooooo



G|------- ------- ------- -------|------- ------- ------- -------|

D|5---------------7-----------7--|9-----------9---10----------10\|

A|-------------------------------|-------------------------------|

E|-------------------------------|-------------------------------|

Here, there, and eve - ry- where!

Ooooooooooooooooooooooooooooooooooooooooooooooooooooooooooooooo



G|------- ------- ------- -------|------- ------- ------- -------|

D|5------------------------------|-------------------------------|

A|-------------------------------|-------------------------------|

E|-------------------------------|-------------------------------|

Ooooooooooooooooooooooooooooooo...



Please e-mail me for any corrections.Added by tabs-database.com and our distinguished partners
Get this song at amazon.com      Ebay     Ringtones Ringtones  


Learn to play: Songwriting, Piano, Harmonica, Guitar

Related Beatles Tabs

Lady Madonna tabs
Help Bass tabs
Roll Over Beethoven tabs
Long Long Long tabs
Goodnight tabs
Two Of Us tabs
I Wanna Hold Your Hand tabs
You Cant Do That tabs
Money tabs
Toomuchmonkeybusiness tabs
Eight Days A Week tabs
Im A Loser tabs
Babys In Black tabs
Longer tabs
Andiloveher tabs
Hello Little Girl tabs
Her Majesty Btab tabs
Ill Be Back tabs
Bigger Than The Beatles tabs
Youre Going To Lose That Girl Bass tabs


Guitar Tabs









All tabs are property and copyright of their owners. All tabs provided for educational purposes only. Privacy Policy, DMCA