Beatles

Good Night Tabs



More from Beatles

Beatles Tabs
Beatles Chords
Beatles Bass
Beatles Lyrics

-------------------------------------------------------------------
THE BEATLES - GOOD NIGHT (Lennon/McCartney) From the WHite Album.
Released on 22nd November 1968.
-------------------------------------------------------------------
Tabbed by:PJVillanueva
Now it's time to say good night
Good night Sleep tight
Now the sun turns out his light
Good night Sleep tight
Dream sweet dreams for me
Dream sweet dreams for you.
Close your eyes and I'll close mine
Good night Sleep tight
Now the moon begins to shine
Good night Sleep tight
Dream sweet dreams for me
Dream sweet dreams for you.
Close your eyes and I'll close mine
Good night Sleep tight
Now the sun turns out his light
Good night Sleep tight
Dream sweet dreams for me
Dream sweet dreams for you.
Good night Good night Everybody
Everybody everywhere
Good night.
I hope there's not too much finger stretching in this number. Use your
thumb for bass notes when needed and let chords ring as much as you can.
Intro
Gmaj7 Cmaj7 Gmaj7 Cmaj7
E|2---------------|0---------------|2---------------|0---------------|
B|3---------------|0---------------|3---------------|0---------------|
G|4---------------|4---------------|4---------------|4---------------|
D|4---------------|2---------------|4---------------|2---------------|
A|----------------|3---------------|----------------|3---------------|
E|-------3--------|--------3-------|--------3-------|--------3-------|x4
.......Fade in.......
G Bm7 Am7 Am11 D7sus4 D7
E|3---------------|5---------------|------------10--|--------5-------|
B|3-----------3---|3-----------3---|8---------------|8-------7-------|
G|0---------------|2---------------|5---------------|5-------5-------|
D|0---------------|4---------------|5---------------|7-------7-------|
A|----------------|2---------------|----------------|5-------5-------|
E|3---------------|----------------|5---------------|----------------|
G Bm7 Am
E|3---------------|5-----------2---|----------------|----------------|
B|3-----------3---|3---------------|5---------------|----------------|
G|0---------------|2-----------2---|5---------------|----5-----------|
D|0-------2---4---|4-------5-------|7-------5---7---|9-------7---5---|
A|----------------|2---------------|7---------------|7-------7-------|
E|3---------------|----------------|5---------------|5-------5-------|
Now it's time to say good night
Bm7 Am7 C/G D
E|----------------|----------------|----------------|----------------|
B|3---------------|1---------------|1-------0---1---|3---------------|
G|2---------------|0---------------|0---------------|2-------0-------|
D|4---------------|2---------------|2---------------|0-----------4---|
A|2---------------|0---------------|----------------|----------------|
E|----------------|----------------|3---------------|2---------------|
Good night Sleep tight
G Bm7 Am7 C/G
E|3---------------|5-----------2---|3---------------|0---------------|
B|0-------1---3---|3-------5-------|1-----------1---|1---------------|
G|0---------------|2---------------|0---------------|0---------------|
D|0---------------|4---------------|2---------------|2---------------|
A|----------------|2---------------|0---------------|----------------|
E|3---------------|----------------|----------------|3---------------|
Now the sun turns out his light
Bm7 Am7 Am7 D
E|2---------------|0---------------|----------------|---------------0|
B|3---------------|1---------------|1---0---3---1---|3---------0-1-2-|
G|2---------------|0---------------|2---------------|2------0-2------|
D|4---------------|2---------------|2---------------|0-0-2-4---------|
A|2---------------|0---------------|----------------|----------------|
E|----------------|----------------|3---------------|2---------------|
Good night Sleep tight
Gmaj7 Cmaj7 Gmaj7 Cmaj7
E|----2-----------|----2-----------|----2-----------|----2-----------|
B|----3-----------|0---------------|----3-----------|0---------------|
G|4---------------|0---------------|4---------------|0---------------|
D|4---------------|2---------------|4---------------|2---------------|
A|----------------|3---------------|----------------|3---------------|
E|3---------------|----------------|3---------------|----------------|
Dream sweet dreams for me
G C G C
E|--3-------------|--3-------------|--3-------------|--3-------------|
B|0-----------0---|1-----------1---|0-----------0---|1---------------|
G|0-----------0---|0---------------|0-----------0---|0---------------|
D|0-----------0---|2---------------|0-----------0---|2---------------|
A|----------------|3---------------|----------------|3---------------|
E|3---------------|----------------|3---------------|----------------|
Dream sweet dreams for you
G Bm7 Am7
E|3---------------|5-----------2---|3---------------|0---------------|
B|3-----------3---|3---------------|1-----------1---|1---------------|
G|0---------------|2---------------|0---------------|0---------------|
D|----------------|4---------------|2---------------|2---------------|
A|----------------|2-------2-------|0-------0-------|0-------0-------|
E|3-------3-------|----------------|----------------|----------------|
Close your eyes and I'll close mine
Bm7 Am7 C6 D
E|--------7-------|----------------|--------5-------|----------------|
B|7---------------|5---------------|5---------------|3---------------|
G|7---------------|5---------------|5---------------|2---------------|
D|7---------------|5---------------|5---------------|0-------2---0---|
A|9---------------|7---------------|----------------|----------------|
E|7-------7-------|5-------5-------|3-------3-------|2---------------|
Good night Sleep tight
G Bm7 Am7 C/G
E|3---------------|5-----------2---|3---------------|0---------------|
B|3-----------3---|3---------------|1---1H3-1---3---|1-------0-------|
G|0---------------|2---------------|0---------------|0---------------|
D|----------------|4---------------|2---------------|2---------------|
A|----------------|2-------2-------|0-------0-------|----------------|
E|3-------3-------|----------------|----------------|3-------3-------|
Now the moon begins to shine
Bsus4 Am C/G D
E|----------------|----------------|0---------------|----------------|
B|--------5-------|--------1---3---|1-------0-------|3---------------|
G|4---------------|2---------------|0---------------|2---------------|
D|4---------------|2---------------|2---------------|0---------------|
A|2-------2-------|0-------0-------|----------------|----------------|
E|----------------|----------------|3-------3-------|2---------------|
Good night Sleep tight
B5 Cmaj7 B5 7
E|----2-----------|----------------|----2-----------|----------------|
B|0---------------|0---------------|0---------------|0---------------|
G|4---------------|0---0-----------|4---------------|0---0-----------|
D|4---4---0-------|2-------2-------|4---4---0-------|2-------2-------|
A|----------------|3---------------|----------------|3---------------|
E|----------------|----------------|----------------|----------------|
Dream sweet dreams for me
G C G C
E|----3-----------|----3-----------|----3-----------|----3-----------|
B|0---------------|1---------------|0---------------|1---------------|
G|0---0-----------|0---0-----------|0---0-----------|0---0-----------|
D|0-------0-------|2-------2-------|0-------0-------|2-------2-------|
A|----------------|----------------|----------------|----------------|
E|3---------------|----------------|3---------------|----------------|
Dream sweet dreams for you
G C A Dm
E|3---------------|----------0-1-3-|5---------------|1---------------|
B|3-----------3---|1---0-1-3-------|2---------------|3-----------0-1-|
G|0---------------|0-2-------------|2-------------0-|2-------0-2-----|
D|----------0-2-3-|2---------------|--------0-2-3---|--0-2-3---------|
A|----0-2-3-------|----------------|--0-2-4---------|----------------|
E|--3-------------|----------------|----------------|----------------|
Mmmmmmmmmmmmmmmmmmmmmmmmmmmmmmmm Mmmmmmmmmmmmmmmmmmmmmmmmmmmmmmmmm
G C D C
E|----------------|------------0---|------------5---|3---------------|
B|0---------------|1-----0-1-3---1-|3-------3-------|1---1-------3---|
G|0---------------|--0-2-----------|2---------------|0-------2-------|
D|0---------0-2-3-|2---------------|0---------------|2-------0-------|
A|----0-2-3-------|3---------------|----------------|--------0-------|
E|--3-------------|----------------|2---------------|0-------2-------|
Mmmmmmmmmmmmmmmmmmmmmmmmmmmmmmm Mmmmmmmmmmmmmmmmmmmmmmmmmmmmmmmmm
G Bm7 Am7
E|3---------0-----|5---2-----------|3---------------|0---------------|
B|3---------3-----|3-------5---3---|1-----------1---|1---------------|
G|0---------0-----|2---------------|0---------------|0---------------|
D|----------------|4---------------|2---------------|2---------------|
A|----------------|2---------------|0---------------|0---------------|
E|3---------------|----------------|----------------|----------------|
Close your eyes and I'll close mine
Bm Am Am7 Dsus4 D Dsus2 D
E|2-----------2---|0-----------0---|------------0---|3---2---0-------|
B|3-----2-3-5-----|1-----0-1-3-----|1-----0-1-3-----|3-----------3---|
G|4---4-----------|2---2-----------|2---2-----------|2---------------|
D|4---------------|2---------------|2---------------|0---------------|
A|2---------------|0---------------|----------------|----------------|
E|----------------|----------------|3---------------|----------------|
Good night Sleep tight
G Bm7 Am7 C/G
E|3---2---0-------|5-----------3---|3---0-----------|0---------------|
B|3-----------3---|3---------------|1-------3---1---|1---------------|
G|0---------------|2---------------|0---------------|0---------------|
D|----------------|4---------------|2---------------|2---------------|
A|----------------|2---------------|0---------------|----------------|
E|3---------------|----------------|----------------|3---------------|
Now the sun turns out his light
Bm Am C/G D
E|2---------------|0---------------|0---------------|----------------|
B|3---------------|1---3---1-------|1---3---1---0---|3---1---0-------|
G|4-------4-------|2-----------2---|0---------------|2-----------2---|
D|4---------------|2---------------|2---------------|0---------------|
A|2---------------|----------------|----------------|----------------|
E|----------------|----------------|3---------------|2---------------|
Good night Sleep tight
Gmaj7 Cmaj7 Gmaj7 C C6
E|2---------------|0---------------|--------7-------|--------5-------|
B|3---------------|0---------------|7-----------7---|5-----------5---|
G|4---------------|4---------------|7---------------|5---------------|
D|4---------------|2---------------|----------------|----------------|
A|----------------|3---------------|----------------|----------------|
E|3-------3-------|3-------3-------|3-------3-------|3-------3-------|
Dream sweet dreams for me
G C/G G Am7
E|--------3-------|--------3-------|--------0-------|----------------|
B|3-----------3---|1-----------1---|0-----------0---|1-------3-------|
G|0---------------|0---------------|0---------------|2-----------2---|
D|0---------------|2---------------|0---------------|2---------------|
A|----------------|----------------|----------------|----------------|
E|3-------3-------|3-------3-------|3-------3-------|3---------------|
Dream sweet dreams for you
G Bm7 Am7 Am11 D7sus4
E|3---------------|5---------------|------------10--|--------5-------|
B|3-----------3---|3-----------3---|8---------------|8---------------|
G|0---------------|2---------------|5---------------|5---------------|
D|----------------|4---------------|5---------------|7---------------|
A|----------------|2---------------|7---------------|5---------------|
E|3---------------|----------------|5---------------|----------------|
Good night
G D C C D
E|10--------------|14--------------|12----------12--|12------14------|
B|12--------------|15--------------|13--------------|13------15------|
G|12--------------|14--------------|12--------------|12------14------|
D|------------12--|--------------12|----------------|----------------|
A|----------------|----------------|----------------|----------------|
E|----------------|----------------|----------------|----------------|
Good night everybody Everybody everywhere Good night
Gจจจจจจจจจจจจจจจจจจจจจจจจจจจจจจจจ
E|3---------------|----------------|
B|0---------------|----------------|
G|0---------------|----------------|
D|0---------------|----------------|
A|2---------------|----------------|
E|3---------------|----------------|
B Bend
R Release
/ slide up
slide down
H hammer-on
P pull-off
~ vibrato
+ harmonic
x Mute note
. - play note like a dot in standard notation
^ - ties two notes together



Get this song at amazon.com      Ebay     Ringtones Ringtones  


Learn to play: Songwriting, Piano, Harmonica, Guitar

Related Beatles Tabs

Junk tabs
Acrosstheuniverse tabs
Hello Goodbye tabs
Askmewhy tabs
Soldieroflove tabs
Imsotired tabs
Any Time At All tabs
__daytripper tabs
Im Looking Through You tabs
Yellow Submarine tabs
Theres A Place tabs
She Loves You tabs
Shes A Woman Bass tabs
Good Morning Good Morning tabs
Revolution tabs
To Know Her Is To Love Her tabs
Birthday Bass tabs
Adayinalife tabs
And Your Bird Can Sing tabs
One And One Is Two tabs


Guitar Tabs









All tabs are property and copyright of their owners. All tabs provided for educational purposes only. Privacy Policy, DMCA