Beatles

Dr robert Tabs



More from Beatles

Beatles Tabs
Beatles Chords
Beatles Bass
Beatles Lyrics

-----------------------------------------------------------
THE BEATLES - DR. ROBERT from REVOLVER album. Released on
August, 6th 1966.
-----------------------------------------------------------
Tabbed by:PJVillanueva
A
e|------- ------- ------- -------|------- ------- ------- -------|
B|--------2-----------3----------|--------2-----------3----------|
G|--------2-----------2-------0--|--------0---0-H-2---2----0-----|
D|-------------------------------|-------------------------------|
A|0---------------0--------------|0---------------0--------------|
E|-------------------------------|-------------------------------|
e|------- ------- ------- -------|------- ------- ------- -------|
B|--------2-----------3----------|--------2-----------3----------|
G|--------0---0-H-2---2-------0--|--------0---0-H-2---2------0---|
D|-------------------------------|-------------------------------|
A|0---------------0--------------|0---------------0--------------|
E|-------------------------------|-------------------------------|
F#
e|------- ------- ------- -------|------- ------- ------- -------|
B|-------------------------------|-------------------------------|
G|--------3-----------4----------|--------3-----------4----------|
D|--------4-----------4-------2--|--------2---2-H-4---4-------2--|
A|-------------------------------|-------------------------------|
E|2---------------2--------------|2---------------2--------------|
e|------- ------- ------- -------|------- ------- ------- -------|
B|-------------------------------|-------------------------------|
G|--------3------------4---------|--------3-----------4----------|
D|--------2---2-H-4----4------2--|--------2---2-H-4---4-------2--|
A|-------------------------------|-------------------------------|
E|2---------------2--------------|2---------------2--------------|
E F#
e|------- ------- ------- -------|------- ------- ------- -------|
B|-------------------------------|-------------------------------|
G|--------1-----------2----------|--------3-----------4----------|
D|--------2-----------2----------|--------4-----------4----------|
A|-------------------------------|-------------------------------|
E|0---------------0--------------|2---------------2--------------|
B
e|------- ------- -------- ------|------- ------- ------- -------|
B|---------------------5---------|--------------------5----------|
G|--------4------------4-----2---|--------2---2-H-4---4----------|
D|--------4------------------4---|--------4---4------------------|
A|2---------------2--------------|2---------------2--------------|
E|-------------------------------|-------------------------------|
Solo Guitar 1
*
B
e|------- 2------ ------- -------|------- ------- ------- -------|
B|----------------5--4-------4-/|5---------------5--4----------|
G|4------------------------------|--------4----------------------|
D|-------------------------------|-------------------------------|
A|-------------------------------|-------------------------------|
E|-------------------------------|-------------------------------|
Middle eight 1 (Well well well ...)
**
B
e|2------ ------- ------- -------|------- ------- ------- -------|
B|-------------------------------|-------------------------------|
G|-------------------------------|4---------------4-------------4|
D|-------------------------------|-------------------------------|
A|-------------------------------|-------------------------------|
E|-------------------------------|-------------------------------|
B
e|------- ------- ------- -------|------- ------- ------- -------|
B|-------------------------------|-------------------------------|
G|4---------------4-------------4|4---------------4-------------4|
D|-------------------------------|-------------------------------|
A|-------------------------------|-------------------------------|
E|-------------------------------|-------------------------------|
............................ 3 Times ..........................
Guitar riff 2
***
A
e|------- 5------ ------- -------|------- ------- ------- ---5---|
B|--------------------2-/-3------|--------3-/-2------2-/-3-------|
G|-------------------------------|-------------------------------|
D|-------------------------------|-------------------------------|
A|-------------------------------|-------------------------------|
E|-------------------------------|-------------------------------|
e|------- ------- ------- -------|------- ------- ------- -------|
B|-------------------------------|-------------------------------|
G|-------------------------------|----------------------------1-/|
D|-------------------------------|-------------------------------|
A|-------------------------------|-------------------------------|
E|-------------------------------|-------------------------------|
e|----5-- ------- ------- -------|------- ------- 5------ -------|
B|----------------3H5P3-------3-|2-------2-/-3-------3-/-5------|
G|2-------2----------------------|----2--------------------------|
D|-------------------------------|-------------------------------|
A|-------------------------------|-------------------------------|
E|-------------------------------|-------------------------------|
e|------- ------- ------- -------|------- ------- ------- -------|
B|-------------------------------|-------------------------------|
G|-------------------------------|----------------------------1-/|
D|-------------------------------|-------------------------------|
A|-------------------------------|-------------------------------|
E|-------------------------------|-------------------------------|
e|------- 5------ ------- -------|5------ ------- ------- -------|
B|---2------------2-/-3----------|--------3--2---2-/-3----------|
G|2------------------------------|-------------------------------|
D|-------------------------------|-------------------------------|
A|-------------------------------|-------------------------------|
E|-------------------------------|-------------------------------|
e|------ 2------ ------- --------|------- ------- ------- -------|
B|-------------------------------|-------------------------------|
G|-------------------------------|-------------------------------|
D|-------------------------------|-------------------------------|
A|-------------------------------|-------------------------------|
E|-------------------------------|-------------------------------|
e|------- 2------ ------- -------|------- ------- ------- -------|
B|-------------------------------|-------------------------------|
G|3------------------------------|-------------------------------|
D|-------------------------------|-------------------------------|
A|-------------------------------|-------------------------------|
E|-------------------------------|-------------------------------|
e|------- 2------ ------- -------|------- ------- ------- -------|
B|-------------------------------|-------------------------------|
G|3------------------------------|-------------------------------|
D|-------------------------------|-------------------------------|
A|-------------------------------|-------------------------------|
E|-------------------------------|-------------------------------|
e|------- 0------ ------- -------|------- 2------ ------- -------|
B|-------------------------------|-------------------------------|
G|4----------------------------4-|3------------------------------|
D|-------------------------------|-------------------------------|
A|-------------------------------|-------------------------------|
E|-------------------------------|-------------------------------|
e|------- 2------ ------- -------|0------ ------- ------- -------|
B|--------------------4-/-5---0--|--------------------0---5--4--|
G|4------------------------------|------------------------4------|
D|-------------------------------|-------------------------------|
A|-------------------------------|-------------------------------|
E|-------------------------------|-------------------------------|
Middle eight 2
e|------- ------- ------- -------|------- ------- ------- -------|
B|-------------------------------|-------------------------------|
G|-------------------------------|4---------------4-------------4|
D|-------------------------------|-------------------------------|
A|-------------------------------|-------------------------------|
E|-------------------------------|-------------------------------|
e|------- ------- ------- -------|------- ------- ------- -------|
B|-------------------------------|-------------------------------|
G|4---------------4-------------4|4---------------4-------------4|
D|-------------------------------|-------------------------------|
A|-------------------------------|-------------------------------|
E|-------------------------------|-------------------------------|
.............................. 3 Times ........................
Coda
e|------- ------- ------- -------|------- 5------ ------- -------|
B|--------2-----------2-/-3------|3-H-5---------------3---3------|
G|2------------------------------|-------------------------------|
D|-------------------------------|-------------------------------|
A|-------------------------------|-------------------------------|
E|-------------------------------|-------------------------------|
e|------- ------- ------- -------|5------ ------- ------- -------|
B|2-------------------2-/-3------|----3-H-5-------5-P-3---3-P-2--|
G|-------------------------------|-------------------------------|
D|-------------------------------|-------------------------------|
A|-------------------------------|-------------------------------|
E|-------------------------------|-------------------------------|
e|------- 5------ ------- -------|5------ ------- ------- -------|
B|--------------------2-/-3------|------------2-H-3---3---3-P-2--|
G|-------------------------------|--------------------2----------|
D|-------------------------------|-------------------------------|
A|-------------------------------|-------------------------------|
E|-------------------------------|-------------------------------|
e|------- ----5-- ------- -------|----5-- ------- 5------ -------|
B|--------3-------3-P-2-------2-H|3-------3-H-2-------2-H-3------|
G|-------------------------------|-------------------------------|
D|-------------------------------|-------------------------------|
A|-------------------------------|-------------------------------|
E|-------------------------------|-------------------------------|
e|5------ ------- ------- -------|------- ------- 5------ -------|
B|------------2-H-3-------3-P-2--|----2--------------------------|
G|-------------------------------|-------------------------------|
D|-------------------------------|-------------------------------|
A|-------------------------------|-------------------------------|
E|-------------------------------|-------------------------------|
e|2------ 2------ 2------ 2------|2------ ------- 2------ -------|
B|2-------2-------2-------2-H-4--|2---4-P-2-------2-------2------|
G|-------------------------------|------------3-----------3------|
D|-------------------------------|-------------------------------|
A|-------------------------------|-------------------------------|
E|-------------------------------|-------------------------------|
e|2---2-- 2------ 2---2-- 2------|------- ------- ------- -------|
B|4---4---4-------5---5---5-P-4--|-------------------------------|
G|-------------------------------|-------------------------------|
D|-------------------------------|-------------------------------|
A|-------------------------------|-------------------------------|
E|-------------------------------|-------------------------------|
A
Ring my friend, I said you call Doctor Robert
Day or night he'll be there any time at all, Doctor Robert
F#
Doctor Robert, you're a new and better man
He helps you to understand
E F# B
He does everything he can, Doctor Robert
A
If you're down he'll pick you up, Doctor Robert
Take a drink from his special cup, Doctor Robert
F#
Doctor Robert, he's a man you must believe,
Helping ev'ryone in need
E F# *
No one can succeed like Doctor Robert
Middle Eight
**
B Bsus4 B
Well well well you're feeling fine
Bsus4 A ***
Well well well, he'll make you...Doctor Robert
A
My friend works with the Nat'nal Health, Doctor Robert
Don't pay money just to see yourself with Doctor Robert
F#
Doctor Robert, you're a new and better man,
he helps you to understand,
E F# B
He does ev'rything he can, Doctor Robert
Middle eight 2
B Bsus4 B
Well well well you're feeling fine
Bsus4 A
Well well well, he'll make you...Doctor Robert
Coda
A
Ring my friend, I said you call Doctor Robert
Ring my friend, I said you call Doctor Robert
F#7 F#7/6 F#7 B Bsus4 B
Doctor Robert
Chords
A x0222
Asus4 x0223
A7sus4 x0203
A7 x0202
F# (no 5) 2x43
F#sus4 (no 5) 2x44
F#7sus4 " 2x24
F#7 (no 5) 2x23
E (no 5) 0x21
Esus4 (no 5) 0x22
F# (no 5)
F#sus4 (no 5)
B5 (no 3) x244xx
Bsus4 (no 5) x2x45x
B7 (no 3) x242xx
The middle eight part lays in a B and Bsus4/6 harmonium bed
with George's single note pattern repeated along.
B x24442
E x22454
Ending
F#7 242322
F#7/6 242342
B xx4442
Bsus4 xx4452
B Bend
R Release
/ slide up
slide down
H hammer-on
P pull-off
~ vibrato
+ harmonic
x Mute note



Get this song at amazon.com      Ebay     Ringtones Ringtones  


Learn to play: Songwriting, Piano, Harmonica, Guitar

Related Beatles Tabs

Ps I Love You tabs
I Dont Want To Spoil The Party tabs
I Me Mine tabs
I Dig A Pony tabs
Do You Want To Know A Secret~q tabs
Girl Solo tabs
One After 909 tabs
Fixing A Hole tabs
Help Bass tabs
Badboy tabs
You Cant Do That tabs
Someotherguy tabs
Andiloveher tabs
Your Mother Should Know tabs
Its Only Love tabs
Yes It Is tabs
Eleanorrigby tabs
Love Me Do tabs
Tickettoride tabs
I Saw Her Standing There tabs


Guitar Tabs









All tabs are property and copyright of their owners. All tabs provided for educational purposes only. Privacy Policy, DMCA