Beatles

Dizzy Miss Lizzy Bass Tabs



More from Beatles

Beatles Tabs
Beatles Chords
Beatles Bass
Beatles Lyrics

Dizzy Miss Lizzy

The Beatles

Written by Larry Williams; released on album "Help!"



Not such a good song, but a good one to move to :-)



Intro:

G|------- ------- ------- -------|------- ------- ------- -------|

D|------------------------4------|------------------------4------|

A|--------4-------7---7-------7--|--------4-------7---7-------7--|

E|5---5-------5------------------|5---5-------5------------------|







G|------- ------- ------- -------|------- ------- ------- -------|

D|------------------------4------|------------------------4------|

A|--------4-------7---7-------7--|--------4-------7---7-------7--|

E|5---5-------5------------------|5---5-------5------------------|







G|------- ------- ------- 4------|------- ------- ------- 4------|

D|--------4-------7---7-------7--|--------4-------7---7-------7--|

A|5---5-------5------------------|5---5-------5------------------|

E|-------------------------------|-------------------------------|







G|------- ------- ------- -------|------- ------- ------- -------|

D|-------------------------------|------------------------4------|

A|--------4-------7---7---7---7--|--------4-------7---7-------5--|

E|5---5-------5------------------|5---5-------5------------------|







G|------- ------- ------- 6------|------- ------- ------- 4------|

D|--------6-------9---9-------9--|--------4-------7---7-------7--|

A|7---7-------7------------------|5---5-------5------------------|

E|-------------------------------|-------------------------------|







G|------- ------- ------- -------|------- ------- ------- -------|

D|------------------------4------|-------------------------------|

A|--------4-------7---7-------7--|7---7---7---7---7---7---5------|

E|5---5-------5------------------|----------------------------7--|

You make me dizzy, Miss



Verse:

G|------- ------- ------- -------|------- ------- ------- -------|

D|------------------------4------|------------------------4------|

A|--------4-------7---7-------7--|--------4-------7---7-------7--|

E|5---5-------5------------------|5---5-------5------------------|

Liz - zy, the way you rock and roll,





G|------- ------- ------- -------|------- ------- ------- -------|

D|------------------------4------|------------------------4------|

A|--------4-------7---7-------7--|--------4-------7---7-------7--|

E|5---5-------5------------------|5---5-------5------------------|

You make me dizzy, Miss





G|------- ------- ------- 4------|------- ------- ------- 4------|

D|--------4-------7---7-------7--|--------4-------7---7-------7--|

A|5---5-------5------------------|5---5-------5------------------|

E|-------------------------------|-------------------------------|

Liz - zy, when you do the stroll





G|------- ------- ------- -------|------- ------- ------- -------|

D|------------------------4------|------------------------4------|

A|--------4-------7---7-------7--|--------4-------7---7-------5--|

E|5---5-------5------------------|5---5-------5------------------|

Come on, Miss Liz-





G|------- ------- ------- 6------|------- ------- ------- 4------|

D|--------6-------9---9-------9--|--------4-------7---7-------7--|

A|7---7-------7------------------|5---5-------5------------------|

E|-------------------------------|-------------------------------|

zy, girl, I grow too

before



G|------- ------- ------- -------|------- ------- ------- -------|

D|------------------------4------|-------------------------------|

A|--------4-------7---7-------7--/7------/7------/7-------5------|

E|5---5-------5------------------|----------------------------7--|

old! Come on, give me



Verse:

G|------- ------- ------- -------|------- ------- ------- -------|

D|------------------------4------|------------------------4------|

A|--------4-------7---7-------7--|--------4-------7---7-------7--|

E|5---5-------5------------------|5---5-------5------------------|

fe - ver, put your little in

hand



G|------- ------- ------- -------|------- ------- ------- -------|

D|------------------------4------|------------------------4------|

A|--------4-------7---7-------7--|--------4-------7---7-------7--|

E|5---5-------5------------------|5---5-------5------------------|

mine You make me dizzy, Miss





G|------- ------- ------- 4------|------- ------- ------- 4------|

D|--------4-------7---7-------7--|--------4-------7---7-------7--|

A|5---5-------5------------------|5---5-------5------------------|

E|-------------------------------|-------------------------------|

Liz - zy, ooh, girl, you look so





G|------- ------- ------- -------|------- ------- ------- -------|

D|------------------------4------|------------------------4------|

A|--------4-------7---7-------7--|--------4-------7---7-------5--|

E|5---5-------5------------------|5---5-------5------------------|

fine! Just a- rocking and a-





G|------- ------- ------- 6------|------- ------- ------- 4------|

D|--------6-------9---9-------9--|--------4-------7---7-------7--|

A|7---7-------7------------------|5---5-------5------------------|

E|-------------------------------|-------------------------------|

rol - ling, girl, I said I wish were mine!

you



G|------- ------- ------- -------|------- ------- ------- -------|

D|------------------------4------|-------------------------------|

A|--------4-------7---7-------5--|7---7---7---7---7---7---7---7--|

E|5---5-------5------------------|-------------------------------|





Verse (solo):

G|------- ------- ------- -------|------- ------- ------- -------|

D|------------------------4------|------------------------4------|

A|--------4-------7---7-------7--|--------4-------7---7-------7--|

E|5---5-------5------------------|5---5-------5------------------|







G|------- ------- ------- -------|------- ------- ------- -------|

D|------------------------4------|------------------------4------|

A|--------4-------7---7-------7--|--------4-------7---7-------7--|

E|5---5-------5------------------|5---5-------5------------------|







G|------- ------- ------- 4------|------- ------- ------- 4------|

D|--------4-------7---7-------7--|--------4-------7---7-------7--|

A|5---5-------5------------------|5---5-------5------------------|

E|-------------------------------|-------------------------------|







G|------- ------- ------- -------|------- ------- ------- -------|

D|------------------------4------|------------------------4------|

A|--------4-------7---7-------7--|--------4-------7---7-------5--|

E|5---5-------5------------------|5---5-------5------------------|







G|------- ------- ------- 6------|------- ------- ------- 4------|

D|--------6-------9---9-------9--|--------4---7---7---7-------7--|

A|7---7--------------------------|5---5--------------------------|

E|-------------------------------|-------------------------------|







G|------- ------- ------- -------|------- ------- ------- -------|

D|------------------------4------|-------------------------------|

A|--------4-------7---7-------5--|7---7---7---7---7---7---7---7--|

E|5---5-------5------------------|-------------------------------|

You make me dizzy, Miss Liz-



Verse:

G|------- ------- ------- -------|------- ------- ------- -------|

D|------------------------4------|------------------------4------|

A|--------4-------7---7-------7--|--------4-------7---7-------7--|

E|5---5-------5------------------|5---5-------5------------------|

zy, when you call my name





G|------- ------- ------- -------|------- ------- ------- -------|

D|------------------------4------|------------------------4------|

A|--------4-------7---7-------7--|--------4-------7---7-------7--|

E|5---5-------5------------------|5---5-------5------------------|

Ooh, ba-





G|------- ------- ------- 4------|------- ------- ------- 4------|

D|--------4-------7---7-------7--|--------4-------7---7-------7--|

A|5---5-------5------------------|5---5-------5------------------|

E|-------------------------------|-------------------------------|

by, say you're me in- sane

driving



G|------- ------- ------- -------|------- ------- ------- -------|

D|------------------------4------|------------------------4------|

A|--------4-------7---7-------7--|--------4-------7---7-------5--|

E|5---5-------5------------------|5---5-------5------------------|

Come come come come

on, on, on, on,



G|------- ------- ------- 6------|------- ------- ------- 4------|

D|--------6-------9---9-------9--|--------4-------7---7-------7--|

A|7---7-------7------------------|5---5-------5------------------|

E|-------------------------------|-------------------------------|

ba- by, I wanna be your loving man





G|------- ------- ------- -------|------- ------- ------- -------|

D|------------------------4------|-------------------------------|

A|--------4-------7---7----------|7-------7-------7--------------|

E|5---5-------5------------------|-------------------------------|





Verse (solo):

G|------- ------- ------- -------|------- ------- ------- -------|

D|------------------------4------|------------------------4------|

A|--------4-------7---7-------7--|--------4-------7---7-------7--|

E|5---5-------5------------------|5---5-------5------------------|







G|------- ------- ------- -------|------- ------- ------- -------|

D|------------------------4------|------------------------4------|

A|--------4-------7---7-------7--|--------4-------7---7-------7--|

E|5---5-------5------------------|5---5-------5------------------|







G|------- ------- ------- 4------|7------ ------- ------- 4---4--|

D|--------4---4---7---7-------7--|--------4-------7---7----------|

A|5---5--------------------------|----5-------5------------------|

E|-------------------------------|-------------------------------|







G|------- ------- ------- -------|------- ------- ------- -------|

D|------------------------4------|------------------------4------|

A|--------4-------7---7-------7--|--------4-------7---7-------5--|

E|5---5-------5------------------|5---5-------5------------------|







G|------- ------- ------- 6------|------- ------- ------- 4------|

D|--------6-------9---9-------9--|--------4---7---7---7-------7--|

A|7---7--------------------------|5---5--------------------------|

E|-------------------------------|-------------------------------|







G|------- ------- ------- -------|------- ------- ------- -------|

D|------------------------4------|-------------------------------|

A|--------4-------7---7-------7--|7-------7-------7-------7------|

E|5---5-------5------------------|-------------------------------|

Run and tell your ma-



Verse:

G|------- ------- ------- -------|------- ------- ------- -------|

D|------------------------4------|------------------------4------|

A|--------4-------7---7-------7--|--------4-------7---7-------7--|

E|5---5-------5------------------|5---5-------5------------------|

ma, I want you to be my bride





G|------- ------- ------- -------|------- ------- ------- -------|

D|------------------------4------|------------------------4------|

A|--------4-------7---7-------7--|--------4-------7---7-------7--|

E|5---5-------5------------------|5---5-------5------------------|

Run and tell your bro-





G|------- ------- ------- 4------|------- ------- ------- 4------|

D|--------4-------7---7-------7--|--------4-------7---7-------7--|

A|5---5-------5------------------|5---5-------5------------------|

E|-------------------------------|-------------------------------|

ther, ba- by, don't and hide

run



G|------- ------- ------- -------|------- ------- ------- -------|

D|------------------------4------|------------------------4------|

A|--------4-------7---7-------7--|--------4-------7---7-------5--|

E|5---5-------5------------------|5---5-------5------------------|

You make me dizzy, Miss





G|------- ------- ------- 6------|------- ------- ------- 4------|

D|--------6-------9---9-------9--|--------4-------7---7-------7--|

A|7---7-------7------------------|5---5-------5------------------|

E|-------------------------------|-------------------------------|

Liz - zy girl, I wanna mar - ry you!





G|------- ------- ------- -------|------- ------- ------- -------|

D|------------------------4------|-------------------------------|

A|--------4-------7---7-------7--|7-------7-------7-------7------|

E|5---5-------5------------------|-------------------------------|

Come on, give me



Verse:

G|------- ------- ------- -------|------- ------- ------- -------|

D|------------------------4------|------------------------4------|

A|--------4-------7---7-------7--|--------4-------7---7-------7--|

E|5---5-------5------------------|5---5-------5------------------|

fe - ver, put your little in

hand



G|------- ------- ------- -------|------- ------- ------- -------|

D|------------------------4------|------------------------4------|

A|--------4-------7---7-------7--|--------4-------7---7-------7--|

E|5---5-------5------------------|5---5-------5------------------|

mine You make me dizzy, Miss





G|------- ------- ------- 4------|------- ------- ------- 4------|

D|--------4-------7---7----------|--------4-------7---7-------7--|

A|5---5-------5------------------|5---5-------5------------------|

E|-------------------------------|-------------------------------|

Liz - zy, girl, you look so fine!





G|------- ------- ------- -------|------- ------- ------- -------|

D|------------------------4------|------------------------4------|

A|--------4-------7---7-------7--|--------4-------7---7-------5--|

E|5---5-------5------------------|5---5-------5------------------|

You're a- rocking and a-

just



G|------- ------- ------- 6------|------- ------- ------- 4------|

D|--------6-------9---9-------9--|--------4-------7---7-------7--|

A|7---7-------7------------------|5---5-------5------------------|

E|-------------------------------|-------------------------------|

rol - ling, girl, I said I wish were mine!

you



G|------- ------- ------- -------|------- ------- ------- -------|

D|------------------------4---7--|7------------------------------|

A|--------4-------7---7----------|-------------------------------|

E|5---5-------5------------------|5------------------------------|



Please e-mail me for any corrections.Added by tabs-database.com and our distinguished partners
Get this song at amazon.com      Ebay     Ringtones Ringtones  


Learn to play: Songwriting, Piano, Harmonica, Guitar

Related Beatles Tabs

Her Majesty Btab tabs
Twist & Shout tabs
Everybodys Tryin To Be My Babe tabs
Oh~e Darling tabs
She Said tabs
Gettingbetter tabs
Baby Its You tabs
Withalittlehelpfrommyfriends tabs
Give Peace A Chance tabs
Rockyracoon tabs
I Need You Bass tabs
Ladymadonna tabs
Honey Pie tabs
What Youre Doing tabs
All Ive Got To Do tabs
Hard Days Night tabs
I Wanna Be Your Man tabs
Dont Ever Change tabs
Work It Out tabs
Happiness Is A Warm Gun tabs


Guitar Tabs









All tabs are property and copyright of their owners. All tabs provided for educational purposes only. Privacy Policy, DMCA

Online converter - videoconverter.com