Beatles

Beatles - Daytripper Tabs



More from Beatles

Beatles Tabs
Beatles Chords
Beatles Bass
Beatles Lyrics



Day Tripper - Beatles



e-------------------------------

b--------------------------------

g--------------------------------

d-----------2--0----4-----0--2----

a---------2-------2----2----------

e--0--2-4------------------------- (Should be e--0--3-4)



e-------------------------------

b--------------------------------

g--------------------------------

d-----------2--0----4-----0--2----

a---------2-------2----2----------

e--0--2-4-------------------------



e--------------------------------

b--------------------------------

g-----------2--0----4-----0--2----

d---------2-------2----2----------

a--0--2-4-------------------------

e-------------------------------



e-------------------------------

b--------------------------------

g--------------------------------

d-----------2--0----4-----0--2----

a---------2-------2----2----------

e--0--2-4-------------------------



E7

"Got a good reason..."

A7

"Got a good reason..."

E7

"For taking..."

F#

"Day_____ Tripper...."

A7 G#7 C# B

"so_______long to find out, and I found out

the bridge goes like this....



B7 E/B F#m/B B6 A/B B7 B



the song ends with....



E7

"Day Tripper...etc"



...peace on earth,

Adriyel



"Where the sky begins the horizon ends, despite the best intentions."

- Tom Petty



Get this song at amazon.com      Ebay     Ringtones Ringtones  


Learn to play: Songwriting, Piano, Harmonica, Guitar

Related Beatles Tabs

Magical Mystery Tour tabs
Christmastimeishereagain tabs
Matcchbox Bass Bass tabs
Only A Northern Song Bass tabs
Act Naturally tabs
Dizzy Miss Lizzie tabs
Helter Skelter tabs
Ballad Of John And Yoko tabs
Three Cool Cats tabs
Norwegianwood tabs
The Continuing Story Of Bungalow Bill tabs
Happiness Is tabs
The Night Before tabs
Rocky Racoon tabs
Longandwindingroad tabs
She Came In Through tabs
You Never Give Me Your Money tabs
Iamawalrus tabs
Im So Tired tabs
Beatles At The Bbc Album tabs


Guitar Tabs









All tabs are property and copyright of their owners. All tabs provided for educational purposes only. Privacy Policy, DMCA