Beatles

Badboy Tabs



More from Beatles

Beatles Tabs
Beatles Chords
Beatles Bass
Beatles Lyrics

 B

e|7------ 7------ 7---7-- ----7--|------- ------- ------- -------|

B|7-------7-------7---7-------7--|-------------------------------|

G|8-------8-------8---8-------8--|-------------------------------|

D|9-------9-------9---9-------9--|-------------------------------|

A|9-------9-------9---9-------9--|-------------------------------|

E|7-------7-------7---7-------7--|-------------------------------|



e|------- ------- ------- -------|------- ------- ------- -------|

B|-------------------------------|-------------------------------|

G|-------------------------------|----7------9B11-11R9--7------7-|

D|-------------------------------|---------9--------------9------|

A|-------------------------------|-------------------------------|

E|-------------------------------|-------------------------------|





A

e|7------ 7------ 7---7-- ----7--|------- ------- ------- -------|

B|7-------7-------7---7-------7--|-------------------------------|

G|8-------8-------8---8-------8--|----2---2-------2---2---2------|

D|9-------9-------9---9-------9--|----2---2-------2---2---2------|

A|9-------9-------9---9-------9--|----0---0-------0---0---0------|

E|7-------8-------8---8-------8--|------------2------------------|

A

e|------- ------- ------- -------|------- ------- ------- -------|

B|-------------------------------|---10---10--7---10--10--10-----|

G|-------------------------------|-------------------------------|

D|9------------------------------|-------------------------------|

A|-------------------------------|-------------------------------|

E|-------------------------------|-------------------------------|





B7

e|------- ------- ------- -------|------- ------- ------- -------|

B|-------------------------------|-------------------------------|

G|-------------------------------|-------------------------------|

D|7---7---7---7---7---7---7---7--|7---7---7---7---7---7---7---7--|

A|9---9---9---9---9---9--11---9--|9---9---9---9---9---9--11---9--|

E|7---7--10--11------------------|7---7--10--11------------------|

bad little kid moved in......to my neighbour....hood





e|------- ------- ------- -------|------- ------- ------- -------|

B|-------------------------------|-------------------------------|

G|-------------------------------|-------------------------------|

D|7---7---7---7---7---7---7---7--|7---7---7---7---7---7---7---7--|

A|9---9---9---9---9---9--11---9--|9---9---9---9---9---9--11---9--|

E|7---7--10--11------------------|7---7--10--11------------------|

He

e|------- ------- ------- 7------|------- ------- ------- -------|

B|-------------------------------|-------------------------------|

G|--------7---9---9-B-11---------|11-R-9--7----------------------|

D|----9--------------------------|------------9------------------|

A|-------------------------------|-------------------------------|

E|-------------------------------|-------------------------------|







e|------- ------- ------- -------|------- ------- ------- -------|

B|-------------------------------|-------------------------------|

G|-------------------------------|-------------------------------|

D|7---7---7---7---7---7---7---7--|7---7---7---7---7---7---7---7--|

A|9---9---9---9---9---9--11---9--|9---9---9---9---9---9--11---9--|

E|7---7--10--11------------------|7---7--10--11------------------|

won't do nothing right just sitting down and looks so good



e|------- ------- ------- 7------|------- ------- ------- -------|

B|-------------------------------|-------------------------------|

G|--------7---9---9-B-11---------|11-R-9--7----------------------|

D|----9--------------------------|------------9------------------|

A|-------------------------------|-------------------------------|

E|-------------------------------|-------------------------------|





E7

e|------- ------- ------- -------|------- ------- ------- -------|

B|-------------------------------|-------------------------------|

G|-------------------------------|-------------------------------|

D|0---0---0---0---0---0---0---0--|0---0---0---0---0---0---0---0--|

A|2---2---2---2---2---2---4---2--|2---2---2---2---2---2---4---2--|

E|0---0---3---4------------------|0---0---3---4------------------|

don't want to go to school and learn to read and write







e|------- ------- ------- -------|------- ------- ------- -------|

B|-------------------------------|-------------------------------|

G|-------------------------------|-------------------------------|

D|0---0---0---0---0---0---0---0--|0---0---0---0---0---0---0---0--|

A|2---2---2---2---2---2---4---2--|2---2---2---2---2---2---4---2--|

E|0---0---3---4------------------|0---0---3---4------------------|

Just

e|----7-- ----7-- 7---7-- ----7--|7------ ----7-- 7------ -------|

B|-------------------------------|-------------------------------|

G|-------------------------------|-------------------------------|

D|-------------------------------|-------------------------------|

A|-------------------------------|-------------------------------|

E|-------------------------------|-------------------------------|





B7

e|------- ------- ------- -------|------- ------- ------- -------|

B|-------------------------------|-------------------------------|

G|-------------------------------|-------------------------------|

D|7---7---7---7---7---7---7---7--|7---7---7---7---7---7---7---7--|

A|9---9---9---9---9---9--11---9--|9---9---9---9---9---9--11---9--|

E|7---7--10--11------------------|7---7--10--11------------------|

sits around the house and plays the rock and roll music all night







e|------- ------- ------- -------|------- ------- ------- -------|

B|-------------------------------|-------------------------------|

G|-------------------------------|-------------------------------|

D|7---7---7---7---7---7---7---7--|7---7---7---7---7---7---7---7--|

A|9---9---9---9---9---9--11---9--|9---9---9---9---9---9--11---9--|

E|7---7--10--11------------------|7---7--10--11------------------|

Well he

e|----7-- ------- ------- -------|------- ------- -----7- -------|

B|-------------------------------|-------------------------------|

G|-----------9B10R9-------7------|----------------9B11-----------|

D|-------------------------------|9------------------------------|

A|-------------------------------|-------------------------------|

E|-------------------------------|-------------------------------|





F#5 E5

e|------- ------- ------- -------|------- ------- ------- -------|

B|-------------------------------|-------------------------------|

G|-------------------------------|-------------------------------|

D|4-----------4-----------4------|2-----------2-----------0------|

A|4-----------4-----------4------|2-----------2-----------2------|

E|2-----------2-----------2------|0-----------0-----------0------|

puts some tacks on teacher's chair Puts some gum in little1girl's hair





B7 F#5

e|------- ------- ------- -------|------- ------- ------- -------|

B|0------------------------------|-------------------------------|

G|2------------------------------|-------------------------------|

D|1------------------------------|--------------------4-4-4---4--|

A|2------------------------------|--------------------4-4-4---4--|

E|-------------------------------|--------------------2-2-2---2-/|

Now junior, behave yourself



B7

e|------- ------- ------- -------|------- ------- ------- -------|

B|-------------------------------|-------------------------------|

G|-------------------------------|-------------------------------|

D|7---7---7---7---7---7---7---7--|7---7---7---7---7---7---7---7--|

A|9---9---9---9---9---9--11---9--|9---9---9---9---9---9--11---9--|

E|7---7--10--11------------------|7---7--10--11------------------|

Buys every rock and roll book on the magazine





e|------- ------- ------- -------|------- ------- ------- -------|

B|-------------------------------|-------------------------------|

G|-------------------------------|-------------------------------|

D|7---7---7---7---7---7---7---7--|7---7---7---7---7---7---7---7--|

A|9---9---9---9---9---9--11---9--|9---9---9---9---9---9--11---9--|

E|7---7--10--11------------------|7---7--10--11------------------|

stand Every

e|------- ------- ------- 7------|------- ------- ------- -------|

B|-------------------------------|-------------------------------|

G|--------7---9---9-B-11---------|11-R-9--7----------------------|

D|----9--------------------------|------------9------------------|

A|-------------------------------|-------------------------------|

E|-------------------------------|-------------------------------|







e|------- ------- ------- -------|------- ------- ------- -------|

B|-------------------------------|-------------------------------|

G|-------------------------------|-------------------------------|

D|7---7---7---7---7---7---7---7--|7---7---7---7---7---7---7---7--|

A|9---9---9---9---9---9--11---9--|9---9---9---9---9---9--11---9--|

E|7---7--10--11------------------|7---7--10--11------------------|

dime that he get oh is lost to the jukebox man





e|------- ------- ------- -------|------- ------- ------- -------|

B|-------------------------------|-------------------------------|

G|-------------------------------|-------------------------------|

D|7---7---7---7---7---7---7---7--|7---7---7---7---7---7---7---7--|

A|9---9---9---9---9---9--11---9--|9---9---9---9---9---9--11---9--|

E|7---7--10--11------------------|7---7--10--11------------------|

Well he

e|----7-- ------- ------- -------|------- ------- ------- -------|

B|---------9B10R9-7--------------|-------------------------------|

G|------------------------7------|----7-----------9-B-11--7------|

D|-------------------------------|9-----------9------------------|

A|-------------------------------|-------------------------------|

E|-------------------------------|-------------------------------|





E7

e|------- ------- ------- -------|------- ------- ------- -------|

B|-------------------------------|-------------------------------|

G|-------------------------------|-------------------------------|

D|0---0---0---0---0---0---0---0--|0---0---0---0---0---0---0---0--|

A|2---2---2---2---2---2---4---2--|2---2---2---2---2---2---4---2--|

E|0---0---3---4------------------|0---0---3---4------------------|

worries his teacher till at night she's ready to poop





e|------- ------- ------- -------|------- ------- ------- -------|

B|-------------------------------|-------------------------------|

G|-------------------------------|-------------------------------|

D|0---0---0---0---0---0---0---0--|0---0---0---0---0---0---0---0--|

A|2---2---2---2---2---2---4---2--|2---2---2---2---2---2---4---2--|

E|0---0---3---4------------------|0---0---3---4------------------|

From

e|------- ---10-- ------- ---10--|12B1412B1412B1412B14R12-10-----|

B|---12-----------12-------------|-------------------------------|

G|-------------------------------|-------------------------------|

D|-------------------------------|-------------------------------|

A|-------------------------------|-------------------------------|

E|-------------------------------|-------------------------------|





B7

e|------- ------- ------- -------|------- ------- ------- -------|

B|-------------------------------|-------------------------------|

G|-------------------------------|-------------------------------|

D|7---7---7---7---7---7---7---7--|7---7---7---7---7---7---7---7--|

A|9---9---9---9---9---9--11---9--|9---9---9---9---9---9--11---9--|

E|7---7--10--11------------------|7---7--10--11------------------|

rocking and a-rolling spinning in a hula hoop





e|------- ------- ------- -------|------- ------- ------- -------|

B|-------------------------------|-------------------------------|

G|-------------------------------|-------------------------------|

D|7---7---7---7---7---7---7---7--|7---7---7---7---7---7---7---7--|

A|9---9---9---9---9---9--11---9--|9---9---9---9---9---9--11---9--|

E|7---7--10--11------------------|7---7--10--11------------------|

Well this

e|------- 5------ ------- -------|------- ------- ------- -------|

B|--------5-H-7------------------|5-P-3-------3------------------|

G|-------------------------------|--------4---------------4------|

D|-------------------------------|-------------------------------|

A|-------------------------------|-------------------------------|

E|-------------------------------|-------------------------------|





F#5 E5

e|------- ------- ------- -------|------- ------- ------- -------|

B|-------------------------------|-------------------------------|

G|-------------------------------|-------------------------------|

D|4-----------4-----------4------|2-----------2-----------0------|

A|4-----------4-----------4------|2-----------2-----------0------|

E|2-----------2-----------2------|0-----------0-----------0------|

rock and roll has got to stop Junior's head is hard as rock





B7 F#5

e|------- ------- ------- -------|------- ------- ------- -------|

B|0------------------------------|-------------------------------|

G|2------------------------------|-------------------------------|

D|1------------------------------|--------------------4-4-4---4--|

A|2------------------------------|--------------------4-4-4---4--|

E|-------------------------------|--------------------2-2-2---2-/|

Now, junior, behave yourself





Solo

B7

e|------- ------- ------- -------|------- ------- ------- -------|

B|-------------------------------|-------------------------------|

G|-------------------------------|-------------------------------|

D|-------------------------------|-------------------------------|

A|5-------5-----------5----------|7-B-9---9-R-7----5-------------|

E|----------------7-----------7--|--------------------7-------7--|





e|------- ------- ------- -------|------- ------- ------- -------|

B|-------------------------------|-------------------------------|

G|-------------------------------|-------------------------------|

D|------------------------9------|------------------------7---9--|

A|5-------7-B-9------------------|9-R-7---5-------5-/-9----------|

E|-------------------------------|------------7------------------|



E7

e|------- ------- ------- -------|------- ------- ------- -------|

B|-------------------------------|-------------------------------|

G|7-------7-------7-------7------|7-------7-------7---7-------7--|

D|-------------------------------|-------------------------------|

A|-------------------------------|-------------------------------|

E|-------------------------------|-------------------------------|



B7

e|------- 7------ ------- -------|------- ------- ------- -------|

B|-------------------------------|-------------------------------|

G|7-9B11------------------9-B-11-|7------------------------------|

D|-------------------------------|----9-------9---7H9P7---7------|

A|-------------------------------|---------------------9------9-/|

E|-------------------------------|-------------------------------|



F#5 E5

e|------- ------- ------- -------|------- ------- ------- -------|

B|-------------------------------|-------------------------------|

G|-------------------------------|-------------------------------|

D|-------------------------------|--------------------7----------|

A|9----9--9-/-9-----9--9--9---9--|7----7--7---7-----------9--7---|

E|-------------------------------|-----------------------------10|



B7 F#5

e|------- ------- ------- -------|------- ------- ------- -------|

B|-------------------------------|-------------------------------|

G|-------------------------------|-------------------------------|

D|-------------------------------|----4---4---4---4---4---4---4--|

A|-------------------------------|----4---4---4---4---4---4---4--|

E|7----7--7-/-7-----7--7-/7---7--|7-\-2---2---2---2---2---2---2--|







B7

e|------- ------- ------- -------|------- ------- ------- -------|

B|-------------------------------|-------------------------------|

G|-------------------------------|-------------------------------|

D|7---7---7---7---7---7---7---7--|7---7---7---7---7---7---7---7--|

A|9---9---9---9---9---9--11---9--|9---9---9---9---9---9--11---9--|

E|7---7--10--11------------------|7---7--10--11------------------|

Gonna tell your mama you better do what she said





e|------- ------- ------- -------|------- ------- ------- -------|

B|-------------------------------|-------------------------------|

G|-------------------------------|-------------------------------|

D|7---7---7---7---7---7---7---7--|7---7---7---7---7---7---7---7--|

A|9---9---9---9---9---9--11---9--|9---9---9---9---9---9--11---9--|

E|7---7--10--11------------------|7---7--10--11------------------|

Get

e|------- ------- ------- 7------|------- ------- ------- -------|

B|-------------------------------|-------------------------------|

G|--------7---9---9-B-11---------|11-R-9--7H9P7------------------|

D|----9--------------------------|--------------9----------------|

A|-------------------------------|-------------------------------|

E|-------------------------------|-------------------------------|







e|------- ------- ------- -------|------- ------- ------- -------|

B|-------------------------------|-------------------------------|

G|-------------------------------|-------------------------------|

D|7---7---7---7---7---7---7---7--|7---7---7---7---7---7---7---7--|

A|9---9---9---9---9---9--11---9--|9---9---9---9---9---9--11---9--|

E|7---7--10--11------------------|7---7--10--11------------------|

to the barber shop and get that hair cut off your head





e|------- ------- ------- -------|------- ------- ------- -------|

B|-------------------------------|-------------------------------|

G|-------------------------------|-------------------------------|

D|7---7---7---7---7---7---7---7--|7---7---7---7---7---7---7---7--|

A|9---9---9---9---9---9--11---9--|9---9---9---9---9---9--11---9--|

E|7---7--10--11------------------|7---7--10--11------------------|



e|------- ------- ------- -------|------- ------- ------- -------|

B|-------------------------------|-------------------------------|

G|--------9-B-11--9-B-11--9-B-11-|9-B-11--9-B-11--9B11R9--7------|

D|-------------------------------|-------------------------------|

A|-------------------------------|-------------------------------|

E|-------------------------------|-------------------------------|





E7

e|------- ------- ------- -------|------- ------- ------- -------|

B|-------------------------------|-------------------------------|

G|-------------------------------|-------------------------------|

D|0---0---0---0---0---0---0---0--|0---0---0---0---0---0---0---0--|

A|2---2---2---2---2---2---4---2--|2---2---2---2---2---2---4---2--|

E|0---0---3---4------------------|0---0---3---4------------------|

Threw the canary and you fed it to the neighbour's cat



e|------- ------- ------- -------|------- ------- ------- -------|

B|-------------------------------|-------------------------------|

G|-------------------------------|-------------------------------|

D|9------------------------------|-------------------------------|

A|-------------------------------|-------------------------------|

E|-------------------------------|-------------------------------|







e|------- ------- ------- -------|------- ------- ------- -------|

B|-------------------------------|-------------------------------|

G|-------------------------------|-------------------------------|

D|0---0---0---0---0---0---0---0--|0---0---0---0---0---0---0---0--|

A|2---2---2---2---2---2---4---2--|2---2---2---2---2---2---4---2--|

E|0---0---3---4------------------|0---0---3---4------------------|

You

e|---12-- ------- ------- -------|------- ------- ------- -------|

B|----------14B15-12-------------|-------------------------------|

G|------------------------12-----|-------------------------------|

D|-------------------------------|14-----------------------------|

A|-------------------------------|-------------------------------|

E|-------------------------------|-------------------------------|





B7

e|------- ------- ------- -------|------- ------- ------- -------|

B|-------------------------------|-------------------------------|

G|-------------------------------|-------------------------------|

D|7---7---7---7---7---7---7---7--|7---7---7---7---7---7---7---7--|

A|9---9---9---9---9---9--11---9--|9---9---9---9---9---9--11---9--|

E|7---7--10--11------------------|7---7--10--11------------------|

gave the cocker spaniel a bath in mother's Laundromat







e|------- ------- ------- -------|------- ------- ------- -------|

B|-------------------------------|-------------------------------|

G|-------------------------------|-------------------------------|

D|7---7---7---7---7---7---7---7--|7---7---7---7---7---7---7---7--|

A|9---9---9---9---9---9--11---9--|9---9---9---9---9---9--11---9--|

E|7---7--10--11------------------|7---7--10--11------------------|

Well,

e|------- ------- ------- ----10-|12B1412B1412B1412B14R12 10-----|

B|--------12------10--12---------|-------------------------------|

G|-------------------------------|-------------------------------|

D|-------------------------------|-------------------------------|

A|-------------------------------|-------------------------------|

E|-------------------------------|-------------------------------|





F#5 E5

e|------- ------- ------- -------|------- ------- ------- -------|

B|-------------------------------|-------------------------------|

G|-------------------------------|-------------------------------|

D|4-----------4-----------4------|2-----------2-----------2---/--|

A|4-----------4-----------4------|2-----------2-----------2---/--|

E|2-----------2-----------2------|0-----------0-----------0------|

mamma's head has got to stop Junior's head is hard as rock





B7 (.

e|------- ------- ------- -------|------- ------- ------- -------|

B|-------------------------------|-------------------------------|

G|8------------------------------|----------------8--------------|

D|7------------------------------|----------------7--------------|

A|9------------------------------|----------------9--------------|

E|7------------------------------|----------------7--------------|

Now, junior behave yourself





















B Bend

R Release

/ slide up

\ slide down

H hammer-on

P pull-off

~ vibrato

+ harmonic

x Mute note

. - play note like a dot in standard notation

^ - ties two notes together

Get this song at amazon.com      Ebay     Ringtones Ringtones  


Learn to play: Songwriting, Piano, Harmonica, Guitar

Related Beatles Tabs

Love Me Do tabs
I Want You tabs
A Hard Days Night Solo tabs
Across The Universe 2 tabs
Cometogether tabs
Nobodyiknow tabs
Yellow Submarine tabs
She Said She Said tabs
I Dig A Pony tabs
Everybodys Trying To Be My Baby tabs
Cry For A Shadow tabs
Nobody I Know tabs
Lucy In The Sky With Diamonds tabs
Little Child Bass tabs
You Never Give Me tabs
Youre Going To Lose That Girl Bass tabs
Sexy Sadie tabs
Shes Leaving Home tabs
Day Tripper Btab tabs
Strawberryfieldsforever tabs


Guitar Tabs









All tabs are property and copyright of their owners. All tabs provided for educational purposes only. Privacy Policy, DMCA