Beatles

Another Girl Tabs



More from Beatles

Beatles Tabs
Beatles Chords
Beatles Bass
Beatles Lyrics

--------------------------------------------------------------
THE BEATLES - ANOTHER GIRL (Lennon/McCartney) From HELP album.
Released on August 6th 1965.
--------------------------------------------------------------
Tabbed by:PJVillanueva
For I have got another girl, another girl.
You're making me say that I've got nobody but you,
But as from today, well, I've got somebody that's new.
I ain't no fool and I don't take what I don't want,
For I have got another girl, another girl.
She's sweeter than all the girls and I met quite a few.
Nobody in all the world can do what she can do.
And so I'm telling you, "This time you'd better stop."
For I have got another girl. Another girl.
Who will love me till the end.
Through thick and thin
She will always be my friend.
I don't want to say that I've been unhappy with you,
But, as from today, well, I've seen somebody that's new.
I ain't no fool and I don't take what I don't want,
For I have got another girl. Another girl.
Who will love me till the end.
Through thick and thin
She will always be my friend.
I don't want to say that I've been unhappy with you,
But, as from today, well, I've seen somebody that's new.
I ain't no fool and I don't take what I don't want,
For I have got another girl. Another girl.
Another girl.
Am
e|------ ------ ------ ------|------ ------ ------ ----0-|
B|---------------------------|-------------------------1-|
G|---------------------------|-------------------------2-|
D|---------------------------|-------------------------2-|
A|---------------------------|-------------------------0-|
E|---------------------------|---------------------------|
For I have got
D
e|0----- 0----- 0----- 0-----|2----- 2----- 2----- 2-----|
B|1------1------1------1-----|3------3------3------3-----|
G|2------2------2------2-----|2------2------2------2-----|
D|2------2------2------2-----|0------0------0------0-----|
A|0------0------0------0-----|---------------------------|
E|---------------------------|---------------------------|
another girl
e|------ 5----- ------ 5-----|------ 5----- ------ 5-----|
B|-------5-------------5-----|-------7-------------7-----|
G|-------5-------------5-----|-------7-------------7-----|
D|-------7-------------7-----|-------7-------------7-----|
A|-------7-------------7-----|-------5-------------5-----|
E|-------5-------------5-----|---------------------------|
e|------ ------ ------ ------|------ ------ ------ ------|
B|---------------------------|---------------------------|
G|-------5B6R5-----7B8R7-----|5------5B6----7------------|
D|--------------7------------|---------------------------|
A|---------------------------|---------------------------|
E|---------------------------|---------------------------|
Am D
e|0----- 0----- 0----- 0---0-|2----- 2----- 2----- 2-----|
B|1------1------1------1---1-|3------3------3------3-----|
G|2------2------2------2---2-|2------2------2------2-----|
D|2------2------2------2---2-|0------0------0------0-----|
A|0------0------0------0---0-|---------------------------|
E|---------------------------|---------------------------|
another girl
e|------ 5----- ------ 5-----|------ 5----- ------ 5-----|
B|-------5-------------5-----|-------7-------------7-----|
G|-------5-------------5-----|-------7-------------7-----|
D|-------7-------------7-----|-------7-------------7-----|
A|-------7-------------7-----|-------5-------------5-----|
E|-------5-------------5-----|---------------------------|
e|------ ------ ------ ------|------ ------ ------ ------|
B|---------------------------|---------------------------|
G|-------5B7R5------7--------|5--------------------------|
D|--------------7------------|---------------------------|
A|---------------------------|---------------------------|
E|---------------------------|---------------------------|
00:06
Am G
e|0----- 0----- 0---0- 0-----|----3- 3----- 3----- 3-----|
B|1------1------1---1--1-----|----3--3------3------3-----|
G|2------2------2---2--2-----|----0--0------0------0-----|
D|2------2------2---2--2-----|----0--0------0------0-----|
A|0------0------0---0--0-----|----2--2------2------2-----|
E|---------------------------|----3--3------3------3-----|
You're me say that got
making I've
e|------ 5----- ------ 5-----|------ 3----- ------ 3-----|
B|-------5-------------5-----|-------3-------------3-----|
G|-------5-------------5-----|-------4-------------4-----|
D|-------7-------------7-----|-------5-------------5-----|
A|-------7-------------7-----|-------5-------------5-----|
E|-------5-------------5-----|-------3-------------3-----|
Am D
e|0----- 0----- 0---0- 0-----|----2- 2----- 2----- 2-----|
B|1------1------1---1--1-----|----3--3------3------3-----|
G|2------2------2---2--2-----|----2--2------2------2-----|
D|2------2------2---2--2-----|----0--0------0------0-----|
A|0------0------0---0--0-----|---------------------------|
E|---------------------------|---------------------------|
nobody but you
e|------ 5----- ------ 5-----|------ 5----- ------ 5-----|
B|-------5-------------5-----|-------7-------------7-----|
G|-------5-------------5-----|-------7-------------7-----|
D|-------7-------------7-----|-------7-------------7-----|
A|-------7-------------7-----|-------5-------------5-----|
E|-------5-------------5-----|---------------------------|
00:11
Am G
e|0----- 0----- 0---0- 0-----|----3- 3----- 3----- 3---3-|
B|1------1------1---1--1-----|----3--3------3------3---3-|
G|2------2------2---2--2-----|----0--0------0------0---0-|
D|2------2------2---2--2-----|----0--0------0------0---0-|
A|0------0------0---0--0-----|----2--2------2------2---2-|
E|---------------------------|----3--3------3------3---3-|
But from today, well, got
as I've
e|------ 5----- ------ 5-----|------ 3----- ------ 3-----|
B|-------5-------------5-----|-------3-------------3-----|
G|-------5-------------5-----|-------4-------------4-----|
D|-------7-------------7-----|-------5-------------5-----|
A|-------7-------------7-----|-------5-------------5-----|
E|-------5-------------5-----|-------3-------------3-----|
Am D
e|0----- 0----- 0---0- 0-----|----2- 2----- 2----- 2---2-|
B|1------1------1---1--1-----|----3--3------3------3---3-|
G|2------2------2---2--2-----|----2--2------2------2---2-|
D|2------2------2---2--2-----|----0--0------0------0---0-|
A|0------0------0---0--0-----|---------------------------|
E|---------------------------|---------------------------|
somebody that's new
e|------ 5----- ------ 5-----|------ 5----- ------ 5-----|
B|-------5-------------5-----|-------7-------------7-----|
G|-------5-------------5-----|-------7-------------7-----|
D|-------7-------------7-----|-------7-------------7-----|
A|-------7-------------7-----|-------5-------------5-----|
E|-------5-------------5-----|---------------------------|
00:17
e|2----- 2---2- 2---2- 2---2-|2----- 2----- 2---2- 2-----|
B|3------3---3--3---3--3---3-|3------3------3---3--3-----|
G|2------2---2--2---2--2---2-|2------2------2---2--2-----|
D|0------0---0--0---0--0---0-|0------0------0---0--0-----|
A|---------------------------|---------------------------|
E|---------------------------|---------------------------|
I ain't no fool and I don't
e|------ 5----- ------ 5-----|------ 5----- ------ 5-----|
B|-------7-------------7-----|-------7-------------7-----|
G|-------7-------------7-----|-------7-------------7-----|
D|-------7-------------7-----|-------7-------------7-----|
A|-------5-------------5-----|-------5-------------5-----|
E|---------------------------|---------------------------|
E Am
e|2----- 2----- 2---2- 2-----|0----- ------ ------ ----0-|
B|3------3------3---3--3-----|0------------------------1-|
G|2------2------2---2--2-----|1------------------------2-|
D|0------0------0---0--0-----|2------------------------2-|
A|---------------------------|2------------------------0-|
E|---------------------------|0--------------------------|
take what don't want for I have got
I
e|------ 5----- ------ 5-----|------ ------ ------ ------|
B|-------7-------------7-----|---------------------------|
G|-------7-------------7-----|---------------------------|
D|-------7-------------7-----|---------------------------|
A|-------5------5------5-----|---------------------------|
E|---------------------------|---------------------------|
00:22
D
e|0----- 0----- 0---0- 0-----|----2- 2----- 2---2- 2-----|
B|1------1------1---1--1-----|----3--3------3---3--3-----|
G|2------2------2---2--2-----|----2--2------2---2--2-----|
D|2------2------2---2--2-----|----0--0------0---0--0-----|
A|0------0------0---0--0-----|---------------------------|
E|---------------------------|---------------------------|
another girl
e|------ 5----- ------ 5-----|------ 5----- ------ 5-----|
B|-------5-------------5-----|-------7-------------7-----|
G|-------5-------------5-----|-------7-------------7-----|
D|-------7-------------7-----|-------7-------------7-----|
A|-------7-------------7-----|-------5-------------5-----|
E|-------5-------------5-----|---------------------------|
e|------ 5----- ------ ------|------ ------ ------ ------|
B|-----------7B87------------|---------------------------|
G|7B9--------------7B8R7-----|5--------------------------|
D|---------------------------|---------------------------|
A|---------------------------|---------------------------|
E|---------------------------|---------------------------|
Am D
e|0----- 0----- 0---0- 0-----|2----- 2----- 2---2- 2-----|
B|1------1------1---1--1-----|3------3------3---3--3-----|
G|2------2------2---2--2-----|2------2------2---2--2-----|
D|2------2------2---2--2-----|0------0------0---0--0-----|
A|0------0------0---0--0-----|---------------------------|
E|---------------------------|---------------------------|
another girl
e|------ 5----- ------ 5-----|------ 5----- ------ 5-----|
B|-------5-------------5-----|-------7-------------7-----|
G|-------5-------------5-----|-------7-------------7-----|
D|-------7-------------7-----|-------7-------------7-----|
A|-------7-------------7-----|-------5-------------5-----|
E|-------5-------------5-----|---------------------------|
e|----5- 5----- ------ ------|------ ------ ------ ------|
B|---------------------------|---------------------------|
G|------------------7--7B8R7-|5--------------------------|
D|---------------------------|---------------------------|
A|---------------------------|---------------------------|
E|---------------------------|---------------------------|
00:27
Am G
e|0----- 0----- 0---0- 0-----|3----- 3----- 3---3- 3-----|
B|1------1------1---1--1-----|3------3------3---3--3-----|
G|2------2------2---2--2-----|0------0------0---0--0-----|
D|2------2------2---2--2-----|0------0------0---0--0-----|
A|0------0------0---0--0-----|2------2------2---2--2-----|
E|---------------------------|3------3------3---3--3-----|
She's sweeter all the girls and
than
e|------ 5----- ------ 5-----|------ 3----- ------ 3-----|
B|-------5-------------5-----|-------3-------------3-----|
G|-------5-------------5-----|-------4-------------4-----|
D|-------7-------------7-----|-------5-------------5-----|
A|-------7-------------7-----|-------5-------------5-----|
E|-------5-------------5-----|-------3-------------3-----|
Am D
e|0----- 0----- 0---0- 0-----|----2- 2----- 2----- 2-----|
B|1------1------1---1--1-----|----3--3------3------3-----|
G|2------2------2---2--2-----|----2--2------2------2-----|
D|2------2------2---2--2-----|----0--0------0------0-----|
A|0------0------0---0--0-----|---------------------------|
E|---------------------------|---------------------------|
I met quite few
a
e|------ 5----- ------ 5-----|------ 5----- ------ 5-----|
B|-------5-------------5-----|-------7-------------7-----|
G|-------5-------------5-----|-------7-------------7-----|
D|-------7-------------7-----|-------7-------------7-----|
A|-------7-------------7-----|-------5-------------5-----|
E|-------5-------------5-----|---------------------------|
e|------ ------ ------ ------|------ ------ ------ ------|
B|---------------------------|--------------7B8R7--------|
G|---------------------------|---------------------7B8R7-|
D|---------------------------|---------------------------|
A|---------------------------|---------------------------|
E|---------------------------|---------------------------|
00:33
Am G
e|0----- 0---0- ----0- 0-----|----3- 3----- 3----- 3---3-|
B|1------1---1------1--1-----|----3--3------3------3---3-|
G|2------2---2------2--2-----|----0--0------0------0---0-|
D|2------2---2------2--2-----|----0--0------0------0---0-|
A|0------0---0------0--0-----|----2--2------2------2---2-|
E|---------------------------|----3--3------3------3---3-|
nobody in all the world can
e|------ 5----- ------ 5-----|------ 5----- ------ 5-----|
B|-------5-------------5-----|-------3-------------3-----|
G|-------5-------------5-----|-------4-------------4-----|
D|-------7-------------7-----|-------5-------------5-----|
A|-------7-------------7-----|-------5-------------5-----|
E|-------5-------------5-----|-------3-------------3-----|
e|------ ------ ------ ------|------ ------ ------ ------|
B|---------------------------|---------------------------|
G|5B6R5----------------------|---------------------------|
D|---------------------------|---------------------------|
A|---------------------------|---------------------------|
E|---------------------------|---------------------------|
Am D
e|0----- 0----- 0----- 0-----|----2- 2----- 2----- 2-----|
B|1------1------1------1-----|----3--3------3------3-----|
G|2------2------2------2-----|----2--2------2------2-----|
D|2------2------2------2-----|----0--0------0------0-----|
A|0------0------0------0-----|---------------------------|
E|---------------------------|---------------------------|
do what she do
can
e|------ 5----- ------ 5-----|------ 5----- ------ 5-----|
B|-------5-------------5-----|-------7-------------7-----|
G|-------5-------------5-----|-------7-------------7-----|
D|-------7-------------7-----|-------7-------------7-----|
A|-------7-------------7-----|-------5-------------5-----|
E|-------5-------------5-----|---------------------------|
e|------ ------ ------ ------|------ ------ ------ ------|
B|---------------------------|--------------7B8R7--------|
G|7--------------------------|---------------------7B8R7-|
D|---------------------------|---------------------------|
A|---------------------------|---------------------------|
E|---------------------------|---------------------------|
00:38
e|2----- 2----- 2---2- 2-----|2----- 2----- 2---2- 2-----|
B|3------3------3---3--3-----|3------3------3---3--3-----|
G|2------2------2---2--2-----|2------2------2---2--2-----|
D|0------0------0---0--0-----|0------0------0---0--0-----|
A|---------------------------|---------------------------|
E|---------------------------|---------------------------|
And so I'm telling you this
e|------ 5----- ------ 5-----|------ 5----- ------ 5-----|
B|-------7-------------7-----|-------7-------------7-----|
G|-------7-------------7-----|-------7-------------7-----|
D|-------7-------------7-----|-------7-------------7-----|
A|-------5-------------5-----|-------5-------------5-----|
E|---------------------------|---------------------------|
e|------ ------ ------ ------|------ ------ ------ ------|
B|---------------------------|---------------------------|
G|5--------------------------|---------------------------|
D|---------------------------|---------------------------|
A|---------------------------|---------------------------|
E|---------------------------|---------------------------|
E
e|2----- 2----- 2---2- 2-----|0----- ------ ------ ------|
B|3------3------3---3--3-----|0--------------------------|
G|2------2------2---2--2-----|1--------------------------|
D|0------0------0---0--0-----|2--------------------------|
A|---------------------------|2--------------------------|
E|---------------------------|0--------------------------|
time you'd better stop for I have got
e|------ 5----- ------ 5-----|------ ------ ------ ------|
B|-------7-------------7-----|---------------------------|
G|-------7-------------7-----|---------------------------|
D|-------7-------------7-----|---------------------------|
A|-------5-------------5-----|---------------------------|
E|---------------------------|---------------------------|
00:43
Am D
e|0----- 0----- 0---0- 0-----|2----- 2----- 2---2- 2-----|
B|1------1------1---1--1-----|3------3------3---3--3-----|
G|2------2------2---2--2-----|2------2------2---2--2-----|
D|2------2------2---2--2-----|0------0------0---0--0-----|
A|0------0------0---0--0-----|---------------------------|
E|---------------------------|---------------------------|
another girl
e|------ 5----- ------ 5-----|------ 5----- ------ 5-----|
B|-------5-------------5-----|-------7-------------7-----|
G|-------5-------------5-----|-------7-------------7-----|
D|-------7-------------7-----|-------7-------------7-----|
A|-------7-------------7-----|-------5-------------5-----|
E|-------5-------------5-----|---------------------------|
e|------ ------ ------ ------|------ ------ ------ ------|
B|-------5B7R5-----7B8R7-----|5------5B6-----------------|
G|7-------------7------------|--------------7------------|
D|---------------------------|---------------------------|
A|---------------------------|---------------------------|
E|---------------------------|---------------------------|
Am D
e|0----- 0----- 0---0- 0-----|2----- 2----- 2---2- 2-----|
B|1------1------1---1--1-----|3------3------3---3--3-----|
G|2------2------2---2--2-----|2------2------2---2--2-----|
D|2------2------2---2--2-----|0------0------0---0--0-----|
A|0------0------0---0--0-----|---------------------------|
E|---------------------------|---------------------------|
another girl
e|------ 5----- ------ 5-----|------ 5----- ------ 5-----|
B|-------5-------------5-----|-------7-------------7-----|
G|-------5-------------5-----|-------7-------------7-----|
D|-------7-------------7-----|-------7-------------7-----|
A|-------7-------------7-----|-------5-------------5-----|
E|-------5-------------5-----|---------------------------|
e|------ 5----- ------ ------|------ ------ ------ ------|
B|--------------7B8R7--------|---------------------------|
G|---------------------7B8R7-|5B6------------------------|
D|---------------------------|-------7-------------------|
A|---------------------------|---------------------------|
E|---------------------------|---------------------------|
00:49
C G
e|0----- 0----- 0---0- 0---3-|3----- 3----- 3---3- 3-----|
B|1------1------1---1--1---3-|3------3------3---3--3-----|
G|0------0------0---0--0---0-|0------0------0---0--0-----|
D|2------2------2---2--2---0-|0------0------0---0--0-----|
A|3------3------3---3--3---2-|2------2------2---2--2-----|
E|3------3------3---3--3---3-|3------3------3---3--3-----|
who will love me till end
the
e|------ 5----- ----5- ------|------ 3----- ----3- ------|
B|-------5----------5--------|-------3----------3--------|
G|-------5----------5--------|-------4----------4--------|
D|-------5----------5--------|-------5----------5--------|
A|-------3----------3--------|-------5----------4--------|
E|---------------------------|-------3----------3--------|
C G
e|0----- 0----- 0---0- 0---0-|3----- 3----- 3---3- 3---3-|
B|1------1------1---1--1---1-|3------3------3---3--3---3-|
G|0------0------0---0--0---0-|0------0------0---0--0---0-|
D|2------2------2---2--2---2-|0------0------0---0--0---0-|
A|3------3------3---3--3---3-|2------2------2---2--2---2-|
E|3------3------3---3--3---4-|3------3------3---3--3---3-|
through and
thick
e|------ 5----- ----5- ------|------ 3----- ----3- ------|
B|-------5----------5--------|-------3----------3--------|
G|-------5----------5--------|-------4----------4--------|
D|-------5----------5--------|-------5----------5--------|
A|-------3----------3--------|-------5----------5--------|
E|---------------------------|-------3----------3--------|
00:54
C E
e|0----- 0----- ------ ----0-|0----- 0---0- 0----- 0-----|
B|1------1-----------------1-|0------0---0--0------0-----|
G|0------0-----------------0-|1------1---1--1------1-----|
D|2------2-----------------2-|2------2---2--2------2-----|
A|3------3-----------------3-|2------2---2--2------2-----|
E|3------3-----------------3-|0------0---0--0------0-----|
thin she will always be my friend
e|------ 5----- ----5- ------|------ 0----- ----0- ------|
B|-------5----------5--------|-------0----------0--------|
G|-------5----------5--------|-------1----------1--------|
D|-------5----------5--------|-------2----------2--------|
A|-------3----------3--------|-------2----------2--------|
E|---------------------------|-------0----------0--------|
A E
e|0----- 0---0- 0---0- 0-----|0----- 0----- 0---0- 0-----|
B|2------2---2--2---2--2-----|0------0------0---0--0-----|
G|2------2---2--2---2--2-----|1------1------1---1--1-----|
D|2------2---2--2---2--2-----|2------2------2---2--2-----|
A|0------0---0--0---0--0-----|2------2------2---2--2-----|
E|---------------------------|0------0------0---0--0-----|
e|------ 5----- ----5- ------|------ 0----- ------ 0-----|
B|-------5----------5--------|-------0-------------0-----|
G|-------6----------6--------|-------1-------------1-----|
D|-------7----------7--------|-------2-------------2-----|
A|-------7----------7--------|-------2-------------2-----|
E|-------5----------5--------|-------0-------------0-----|
e|------ ------ ------ ------|------ ------ ------ ------|
B|15B17----------------------|15B17--15B17--17R15--13B14-|
G|---------------------------|---------------------------|
D|---------------------------|---------------------------|
A|---------------------------|---------------------------|
E|---------------------------|---------------------------|
01:00
Am G
e|0----- 0----- 0---0- 0-----|----3- 3----- 3----- 3---3-|
B|1------1------1---1--1-----|----3--3------3------3---3-|
G|2------2------2---2--2-----|----0--0------0------0---0-|
D|2------2------2---2--2-----|----0--0------0------0---0-|
A|0------0------0---0--0-----|----2--2------2------2---2-|
E|---------------------------|----3--3------3------3---3-|
I don't wanna say that been
I've
e|------ 5----- ------ 5-----|------ 3----- ------ 3-----|
B|-------5-------------5-----|-------3-------------3-----|
G|-------5-------------5-----|-------4-------------4-----|
D|-------7-------------7-----|-------5-------------5-----|
A|-------7-------------7-----|-------5-------------5-----|
E|-------5-------------5-----|-------3-------------3-----|
e|------ ------ ------ ------|------ ------ ------ ------|
B|---------------------------|---------------------------|
G|14-------------------------|---------------------------|
D|---------------------------|---------------------------|
A|---------------------------|---------------------------|
E|---------------------------|---------------------------|
Am D
e|0----- 0----- 0---0- 0-----|----2- 2----- 2----- 2-----|
B|1------1------1---1--2-----|----3--3------3------3-----|
G|2------2------2---2--2-----|----2--2------2------2-----|
D|2------2------2---2--2-----|----0--0------0------0-----|
A|0------0------0---0--0-----|---------------------------|
E|---------------------------|---------------------------|
unhappy with you
e|------ 5----- ------ 5-----|------ 5----- ------ 5-----|
B|-------5-------------5-----|-------7-------------7-----|
G|-------5-------------5-----|-------7-------------7-----|
D|-------7-------------7-----|-------7-------------7-----|
A|-------7-------------7-----|-------5-------------5-----|
E|-------5-------------5-----|---------------------------|
e|------ ------ ------ ------|------ ------ ------ ------|
B|---------------------------|--------------15B16R1513B14|
G|---------------------------|---------------------------|
D|---------------------------|---------------------------|
A|---------------------------|---------------------------|
E|---------------------------|---------------------------|
01:05
Am G
e|0----- 0----- ----0- 0-----|----3- 3----- 3---3- 3-----|
B|1------1----------1--1-----|----3--3------3---3--3-----|
G|2------2----------2--2-----|----0--0------0---0--0-----|
D|2------2----------2--2-----|----0--0------0---0--0-----|
A|0------0----------0--0-----|----2--2------2---2--2-----|
E|---------------------------|----3--3------3---3--3-----|
But as from today, well, seen
I've
e|------ 5----- ------ 5-----|------ 5----- ------ 5-----|
B|-------5-------------5-----|-------3-------------3-----|
G|-------5-------------5-----|-------4-------------4-----|
D|-------7-------------7-----|-------5-------------5-----|
A|-------7-------------7-----|-------5-------------5-----|
E|-------5-------------5-----|-------3-------------3-----|
e|------ ------ ------ ------|------ ------ ------ ------|
B|---------------------------|---------------------------|
G|14-------------------------|---------------------------|
D|---------------------------|---------------------------|
A|---------------------------|---------------------------|
E|---------------------------|---------------------------|
Am D
e|0----- 0---0- 0----- 0-----|2----- 2----- 2----- 2-----|
B|1------1---1--1------1-----|3------3------3------3-----|
G|2------2---2--2------2-----|2------2------2------2-----|
D|2------2---2--2------2-----|0------0------0------0-----|
A|0------0---0--0------0-----|---------------------------|
E|---------------------------|---------------------------|
somebody that's new
e|------ 5----- ------ 5-----|------ 5----- ------ 5-----|
B|-------5-------------5-----|-------7-------------7-----|
G|-------5-------------5-----|-------7-------------7-----|
D|-------7-------------7-----|-------7-------------7-----|
A|-------7-------------7-----|-------5-------------5-----|
E|-------5-------------5-----|---------------------------|
01:11
e|2----- 2----- 2---2- 2-----|2----- 2----- 2---2- 2-----|
B|3------3------3---3--3-----|3------3------3---3--3-----|
G|2------2------2---2--2-----|2------2------2---2--2-----|
D|0------0------0---0--0-----|0------0------0---0--0-----|
A|---------------------------|---------------------------|
E|---------------------------|---------------------------|
I ain't no fool and I don't
e|------ 5----- ------ 5-----|------ 5----- ------ 5-----|
B|-------7-------------7-----|-------7-------------7-----|
G|-------7-------------7-----|-------7-------------7-----|
D|-------7-------------7-----|-------7-------------7-----|
A|-------5-------------5-----|-------5-------------5-----|
E|---------------------------|---------------------------|
E A
e|2----- 2----- 2---2- 2-----|0----- ------ ------ ----0-|
B|3------3------3---3--3-----|0------------------------1-|
G|2------2------2---2--2-----|1------------------------2-|
D|0------0------0---0--0-----|2------------------------2-|
A|---------------------------|2------------------------0-|
E|---------------------------|0--------------------------|
take what I don't want for I have got
e|------ 5----- ------ 5-----|------ ------ ------ ------|
B|-------7-------------7-----|---------------------------|
G|-------7-------------7-----|---------------------------|
D|-------7-------------7-----|---------------------------|
A|-------5-------------5-----|---------------------------|
E|---------------------------|---------------------------|
01:16
D
e|0----- 0----- 0---0- 0-----|2----- 2----- 2---2- 2-----|
B|1------1------1---1--1-----|3------3------3---3--3-----|
G|2------2------2---2--2-----|2------2------2---2--2-----|
D|2------2------2---2--2-----|0------0------0---0--0-----|
A|0------0------0---0--0-----|---------------------------|
E|---------------------------|---------------------------|
another girl
e|------ ------ ------ ------|------ ------ ------ ------|
B|---7B8R7------7B8R7-----7B8R7--------------------------|
G|---7B8R7------7B8R7-----7B8R7------5B6R5------5--------|
D|---------------------------|--------------7------7-----|
A|---------------------------|---------------------------|
E|---------------------------|---------------------------|
Am D
e|0----- 0----- 0---0- 0-----|2----- 2----- 2----- 2-----|
B|1------1------1---1--1-----|3------3------3------3-----|
G|2------2------2---2--2-----|2------2------2------2-----|
D|2------2------2---2--2-----|0------0------0------0-----|
A|0------0------0---0--0-----|---------------------------|
E|---------------------------|---------------------------|
another girl
e|------ ------ ------ ------|------ ------ ------ ------|
B|---7B9R7------7B9R7-----7B9R7--------------------------|
G|---7B9R7------7B9R7-----7B9R7------5B6R5------5--------|
D|---------------------------|--------------7------7-----|
A|---------------------------|---------------------------|
E|---------------------------|---------------------------|
01:21
C G
e|0----- 0----- 0----- ----3-|3----- 3----- 3---3- 3-----|
B|1------1------1----------3-|3------3------3---3--3-----|
G|0------0------0----------0-|0------0------0---0--0-----|
D|2------2------2----------0-|0------0------0---0--0-----|
A|3------3------3----------2-|2------2------2---2--2-----|
E|3------3------3----------3-|3------3------3---3--3-----|
who will love me till
the
e|------ 5----- ----5- ------|------ 3----- ----3- ------|
B|-------5----------5--------|-------3----------3--------|
G|-------5----------5--------|-------4----------4--------|
D|-------5----------5--------|-------5----------5--------|
A|-------3----------3--------|-------5----------5--------|
E|---------------------------|-------3----------3--------|
C G
e|0----- 0----- 0---0- 0---0-|3----- 3----- 3----- 3---3-|
B|1------1------1---1--1---1-|3------3------3------3---3-|
G|0------0------0---0--0---0-|0------0------0------0---0-|
D|2------2------2---2--2---2-|0------0------0------0---0-|
A|3------3------3---3--3---3-|2------2------2------2---2-|
E|3------3------3---3--3---4-|3------3------3------3---3-|
end through and
thick
e|------ 5----- ----5- ------|------ 3----- ----3- ------|
B|-------5----------5--------|-------3----------3--------|
G|-------5----------5--------|-------4----------4--------|
D|-------5----------5--------|-------5----------5--------|
A|-------3----------3--------|-------5----------5--------|
E|---------------------------|-------3----------3--------|
01:27
C E
e|0----- 0----- ------ ----0-|0----- 0----- 0---0- 0-----|
B|1------1-----------------1-|0------0------0---0--0-----|
G|0------0-----------------0-|1------1------1---1--1-----|
D|2------2-----------------2-|2------2------2---2--2-----|
A|3------3-----------------3-|2------2------2---2--2-----|
E|3------3-----------------3-|0------0------0---0--0-----|
thin she will always be my friend
e|------ 5----- ----5- ------|------ 0----- ------ ------|
B|-------5----------5--------|-------0-------------------|
G|-------5----------5--------|-------1-------------------|
D|-------5----------5--------|-------2-------------------|
A|-------3----------3--------|-------2-------------------|
E|---------------------------|-------0-------------------|
A E
e|0----- 0----- 0----- 0-----|0----- 0----- 0----- 0-----|
B|2------2------2------2-----|0------0------0------0-----|
G|2------2------2------2-----|1------1------1------1-----|
D|2------2------2------2-----|2------2------2------2-----|
A|0------0------0------0-----|2------2------2------2-----|
E|---------------------------|0------0------0------0-----|
e|------ 5----- ----5- ------|------ 0----- ------ 0-----|
B|-------5----------5--------|-------5-------------5-----|
G|-------6----------6--------|-------7-------------7-----|
D|-------7----------7--------|-------6-------------6-----|
A|-------7----------7--------|-------7-------------7-----|
E|-------5----------5--------|---------------------------|
e|------ ------ ------ ------|------ ------ ------ ------|
B|---------------------------|15B17-17-17---17R15--13B14-|
G|---------------------------|---------------------------|
D|---------------------------|---------------------------|
A|---------------------------|---------------------------|
E|---------------------------|---------------------------|
01:33
Am G
e|0----- 0----- 0----- 0-----|----3- 3----- 3----- 3-----|
B|1------1------1------1-----|----3--3------3------3-----|
G|2------2------2------2-----|----0--0------0------0-----|
D|2------2------2------2-----|----0--0------0------0-----|
A|0------0------0------0-----|----2--2------2------2-----|
E|---------------------------|----3--3------3------3-----|
I don't wanna say that been
I've
e|------ 5----- ------ 5-----|------ 3----- ------ 3-----|
B|-------5-------------5-----|-------3-------------3-----|
G|-------5-------------5-----|-------4-------------4-----|
D|-------7-------------7-----|-------5-------------5-----|
A|-------7-------------7-----|-------5-------------5-----|
E|-------5-------------5-----|-------3-------------3-----|
e|------ ------ ------ ------|------ ------ ------ ------|
B|---------------------------|---------------------------|
G|14-------------------------|---------------------------|
D|---------------------------|---------------------------|
A|---------------------------|---------------------------|
E|---------------------------|---------------------------|
Am D
e|0----- 0----- 0---0- 0-----|----2- 2----- 2---2- 2---2-|
B|1------1------1---1--1-----|----3--3------3---3--3---3-|
G|2------2------2---2--2-----|----2--2------2---2--2---2-|
D|2------2------2---2--2-----|----0--0------0---0--0---0-|
A|0------0------0---0--0-----|---------------------------|
E|---------------------------|---------------------------|
unhappy with you
e|------ 5----- ------ 5-----|------ 5----- ------ 5-----|
B|-------5-------------5-----|-------7-------------7-----|
G|-------5-------------5-----|-------7-------------7-----|
D|-------7-------------7-----|-------7-------------7-----|
A|-------7-------------7-----|-------5-------------5-----|
E|-------5-------------5-----|---------------------------|
01:38
Am G
e|0----- 0----- 0---0- 0-----|3---3- 3----- 3----- 3---3-|
B|1------1------1---1--1-----|3---3--3------3------3---3-|
G|2------2------2---2--2-----|0---0--0------0------0---0-|
D|2------2------2---2--2-----|0---0--0------0------0---0-|
A|0------0------0---0--0-----|2---2--2------2------2---2-|
E|---------------------------|3---3--3------3------3---3-|
But as from today, well, seen
I've
e|------ 5----- ------ 5-----|------ 3----- ------ 3-----|
B|-------5-------------5-----|-------3-------------3-----|
G|-------5-------------5-----|-------4-------------4-----|
D|-------7-------------7-----|-------5-------------5-----|
A|-------7-------------7-----|-------5-------------5-----|
E|-------5-------------5-----|-------3-------------3-----|
Am D
e|0----- 0----- 0---0- 0-----|2----- 2----- 2---2- 2-----|
B|1------1------1---1--1-----|3------3------3---3--3-----|
G|2------2------2---2--2-----|2------2------2---2--2-----|
D|2------2------2---2--2-----|0------0------0---0--0-----|
A|0------0------0---0--0-----|---------------------------|
E|---------------------------|---------------------------|
somebody that's new
e|------ 5----- ------ 5-----|------ 5----- ------ 5-----|
B|-------5-------------5-----|-------7-------------7-----|
G|-------5-------------5-----|-------7-------------7-----|
D|-------7-------------7-----|-------7-------------7-----|
A|-------7-------------7-----|-------5-------------5-----|
E|-------5-------------5-----|---------------------------|
. . . .
e|------ ------ ------ ------|------ ------ ------ ------|
B|---------------------------|--------------7-B-8-R7-B-8-R
G|---------------------------|---------------------------|
D|---------------------------|---------------------------|
A|---------------------------|---------------------------|
E|---------------------------|---------------------------|
01:43
e|2----- 2----- 2---2- 2-----|2----- 2----- 2---2- 2-----|
B|3------3------3---3--3-----|3------3------3---3--3-----|
G|2------2------2---2--2-----|2------2------2---2--2-----|
D|0------0------0---0--0-----|0------0------0---0--0-----|
A|---------------------------|---------------------------|
E|---------------------------|---------------------------|
I ain't no fool and I don't
e|------ 5----- ------ 5-----|------ 5----- ------ 5-----|
B|-------7-------------7-----|-------7-------------7-----|
G|-------7-------------7-----|-------7-------------7-----|
D|-------7-------------7-----|-------7-------------7-----|
A|-------5-------------5-----|-------5-------------5-----|
E|---------------------------|---------------------------|
.
e|------ ------ ------ ------|------ ------ ------ ------|
B|7--------------------------|---------------------------|
G|---------------------------|---------------------------|
D|---------------------------|---------------------------|
A|---------------------------|---------------------------|
E|---------------------------|---------------------------|
E Am
e|2----- 2----- 2---2- 2-----|0----- ------ ------ ----0-|
B|3------3------3---3--3-----|0------------------------1-|
G|2------2------2---2--2-----|1------------------------2-|
D|0------0------0---0--0-----|2------------------------2-|
A|---------------------------|2------------------------0-|
E|---------------------------|0--------------------------|
take what I don't want for I have got
e|------ 5----- ------ 5-----|------ ------ ------ ------|
B|-------7-------------7-----|---------------------------|
G|-------7-------------7-----|---------------------------|
D|-------7-------------7-----|---------------------------|
A|-------5-------------5-----|---------------------------|
E|---------------------------|---------------------------|
e|------ ------ ------ ------|------ ------ ------ ------|
B|---B8-R7-B-8---------7-----|---------------------------|
G|---------------------------|---------------------------|
D|---------------------------|---------------------------|
A|---------------------------|---------------------------|
E|---------------------------|---------------------------|
01:49
D
e|0----- 0----- 0----- 0-----|2----- 2----- 2---2- 2-----|
B|1------1------1------1-----|3------3------3---3--3-----|
G|2------2------2------2-----|2------2------2---2--2-----|
D|2------2------2------2-----|0------0------0---0--0-----|
A|0------0------0------0-----|---------------------------|
E|---------------------------|---------------------------|
another girl
e|0----- 0----- 0----- 0-----|2----- 2----- 2----- 2-----|
B|1------1------1------1-----|3------3------3------3-----|
G|2------2------2------2-----|2------2------2------2-----|
D|2------2------2------2-----|0------0------0------0-----|
A|0------0------0------0-----|---------------------------|
E|---------------------------|---------------------------|
e|------ ------ ------ ------|------ ------ ------ ------|
B|-------5B6R5------5--------|5------5B6--------5--------|
G|--------------7----------5-|--------------7------7-----|
D|---------------------------|---------------------------|
A|---------------------------|---------------------------|
E|---------------------------|---------------------------|
Am D
e|0----- 0----- 0---0- 0-----|2----- 2----- 2---2- 2-----|
B|1------1------1---1--1-----|3------3------3---3--3-----|
G|2------2------2---2--2-----|2------2------2---2--2-----|
D|2------2------2---2--2-----|0------0------0---0--0-----|
A|0------0------0---0--0-----|---------------------------|
E|---------------------------|---------------------------|
another girl
e|0----- 0----- 0----- 0-----|2----- 2----- 2----- 2-----|
B|1------1------1------1-----|3------3------3------3-----|
G|2------2------2------2-----|2------2------2------2-----|
D|2------2------2------2-----|0------0------0------0-----|
A|0------0------0------0-----|---------------------------|
E|---------------------------|---------------------------|
e|------ ------ ------ ------|------ ------ ------ ------|
B|-------5-------------------|5------5B6-----------------|
G|--------------7----------5-|--------------7---7--7-----|
D|---------------------------|---------------------------|
A|---------------------------|---------------------------|
E|---------------------------|---------------------------|
01:55
Am D
e|0----- 0----- 0----- 0-----|2----- 2----- 2---2- 2-----|
B|1------1------1------1-----|3------3------3---3--3-----|
G|2------2------2------2-----|2------2------2---2--2-----|
D|2------2------2------2-----|0------0------0---0--0-----|
A|0------0------0------0-----|---------------------------|
E|---------------------------|---------------------------|
another girl
e|0----- 0----- 0----- 0-----|2----- 2----- 2----- 2-----|
B|1------1------1------1-----|3------3------3------3-----|
G|2------2------2------2-----|2------2------2------2-----|
D|2------2------2------2-----|0------0------0------0-----|
A|0------0------0------0-----|---------------------------|
E|---------------------------|---------------------------|
e|------ ------ ------ ------|------ ------ ------ ------|
B|-------5B7R5-----7B8R7-----|5------5B6-----------------|
G|7--------------------------|--------------7------------|
D|---------------------------|---------------------------|
A|---------------------------|---------------------------|
E|---------------------------|---------------------------|
(.
Am
e|0------------------------------------------------------|
B|1------------------------------------------------------|
G|2------------------------------------------------------|
D|2------------------------------------------------------|
A|0------------------------------------------------------|
E|-------------------------------------------------------|
e|---------------------------------5---------------------|
B|--5B6-----7B8--8B9---5B6------------7B8R7--------------|
G|-------7------------------7---------------7B8R7--5B6---|
D|-----------------------------------------------------7-|
A|-------------------------------------------------------|
E|-------------------------------------------------------|
B Bend
R Release
/ Slide up
Slide down
H Hammer-on
P Pull-off
~ Vibrato
+ Harmonic
x Mute note
. Play note like a dot in standard notation
^ Ties two notes together
(. Pause



Get this song at amazon.com      Ebay     Ringtones Ringtones  


Learn to play: Songwriting, Piano, Harmonica, Guitar

Related Beatles Tabs

Im A Loser tabs
Dizzy Miss Lizzie tabs
Dig A Pony tabs
Allyouneedislove tabs
Tax Man tabs
Let It Be tabs
All Ive Got To Do tabs
Chains Bass tabs
Soldieroflove tabs
Dizzy Miss Lizzy Bass tabs
Yellow Submarine Bass tabs
Shes A Woman Bass tabs
Dearprudence tabs
Give Peace A Chance tabs
Anna tabs
Hello Little Girl tabs
I Saw Her Standing There tabs
And I Love Her (Version 2) tabs
Ob La Di Ob La Da tabs
Thecontinuingstoryofbungalowbill tabs


Guitar Tabs









All tabs are property and copyright of their owners. All tabs provided for educational purposes only. Privacy Policy, DMCA

Online converter - videoconverter.com