Beatles

A Taste Of Honey Bass Tabs



More from Beatles

Beatles Tabs
Beatles Chords
Beatles Bass
Beatles Lyrics

A Taste Of Honey

The Beatles

Written by Bobby Scott and Ric Marlow; released on "Please Please Me" album



A great one, the first song that the Beatles played (as I know) which is

both in 3/4 and 4/4 time. And just listen to the F# Major chord on the end,

I think it's wonderful. I think this inspired the ending of "And I Love Her"



3/4 time

Intro:

G|--------------------------|------ ------ ------|------ ------ ------|

D|4-------------------------|--------------------|--------------------|

A|--------------------------|--------------------|--------------------|

E|--------------------------|--------------------|5-------------------|

A taste honey, tasting much

of



G|------------------------|------ ------ ------|------ ------ ------|

D|------------------------|4-------------------|4-------------------|

A|7-----------------------|--------------4-----|--------------4-----|

E|------------------------|--------------------|--------------------|

sweeter than wine

do do n do



G|------ ------ ------|------ ------ ------|

D|4-------------------|4-------------------|

A|--------------4-----|--------------4-----|

E|--------------------|--------------------|

I

do do n do

Verse:

G|------ ------ ------|------ ------ ------|------ ------ ------|

D|4-------------------|4-------------------|4-------------------|

A|--------------------|--------------------|--------------------|

E|--------------------|--------------------|--------------------|

dream of your first kiss, and





G|------ ------ ------|------ ------ ------|------ ------ ------|

D|--------------------|4-------------------|4-------------------|

A|--------------------|--------------------|--------------------|

E|7-------------------|--------------------|--------------------|

then, I feel up - on my





G|------ ------ ------|------ ------ ------|------ ------ ------|

D|4-------------------|--------------------|4-------------------|

A|--------------------|--------------------|--------------4-----|

E|--------------------|7-------------------|--------------------|

lips a - gain A taste honey

of

A taste of

G|------ ------ ------|------ ------ ------|------ ------ ------|

D|4-------------------|--------------------|--------------------|

A|--------------------|--------------------|7-------------------|

E|--------------------|5-------------------|--------------------|

tasting much sweeter than

honey



G|------ ------ ------|------ ------ ------|------ ------ ------|

D|4-------------------|4-------------------|4-------------------|

A|--------------------|--------------4-----|--------------------|

E|-----------7--7---7-|--------------------|-----------7--7---7-|

wine





G|------ ------ ------|

D|4-------------------|

A|--------------------|

E|--------------------|

Woah, will

4/4 time I

Bridge:

G|------ ------ ------ ------|------ ------ ------ ------|

D|4--------------------------|---------------------------|

A|-------7------5------4-----|--------------9------6-----|

E|---------------------------|7------7-----------------7-|

re - turn, yes, I





G|------ ------ ------ ------|------ ------ ------ ------|

D|4------4-------------------|---------------------------|

A|-----------7--5------4-----|--------------9------------|

E|---------------------------|7------7-------------7-----|

will re- turn, I'll come





G|------ ------ ------ ------|------ ------ ------ ------|

D|---------------------------|---------------------------|

A|--------------7------------|7------7-------------7-----|

E|5------5-------------5-----|--------------7------------|

back for the honey and



3/4 time

G|------ ------ ------|------ ------ ------|------ ------ ------|

D|4-------------------|4-------------------|4-------------------|

A|--------------4-----|--------------4-----|--------------4-----|

E|--------------------|--------------------|--------------------|

you

do do n do do do n



G|------ ------ ------|

D|4-------------------|

A|--------------4-----|

E|--------------------|

Yours

do

Verse:

G|------ ------ ------|------ ------ ------|------ ------ ------|

D|4-------------------|4-------------------|4-------------------|

A|--------------------|--------------------|--------------------|

E|--------------------|--------------------|--------------------|

was the kiss that awoke my





G|------ ------ ------|------ ------ ------|------ ------ ------|

D|--------------------|4-------------------|4-------------------|

A|--------------------|--------------------|--------------------|

E|7-------------------|--------------------|--------------------|

heart, There lin - gers still, though

we're



G|------ ------ ------|------ ------ ------|------ ------ ------|

D|4-------------------|--------------------|4-------------------|

A|--------------------|--------------------|--------------4-----|

E|--------------------|7-------------------|--------------------|

far a - part The taste honey

of

A taste of

G|------ ------ ------|------ ------ ------|------ ------ ------|

D|4-------------------|--------------------|--------------------|

A|--------------------|--------------------|7-------------------|

E|--------------------|5-------------------|--------------------|

tasting much sweeter than

honey



G|------ ------ ------|------ ------ ------|------ ------ ------|

D|4-------------------|4-------------------|4-------------------|

A|--------------------|--------------4-----|--------------------|

E|-----------7--7---7-|--------------------|-----------7--7---7-|

wine





G|------ ------ ------|

D|4-------------------|

A|--------------------|

E|--------------------|

Woah, will

4/4 time I

Bridge:

G|------ ------ ------ ------|------ ------ ------ ------|

D|4--------------------------|---------------------------|

A|-------7------5------4-----|-------6------9------6-----|

E|---------------------------|7--------------------------|

re - turn, yes, I





G|------ ------ ------ ------|------ ------ ------ ------|

D|4--------------------------|---------------------------|

A|-------7------5------4-----|--------------9------------|

E|---------------------------|7------7-------------7-----|

will re- turn, I'll come





G|-----------------------------------------------------|

D|-----------------------------------------------------|

A|-----------------------------------------------------|

E|5----------------------------------------------------|

back for the

he'll come back



G|-------------------------------------------------------|

D|-------------------------------------------------------|

A|7------------------------------------------------------|

E|-------------------------------------------------------|

honey, and

for the honey



G|------ ------ ------|------ ------ ------|------ ------ ------|

D|4-------------------|4-------------------|4-------------------|

A|--------------------|--------------------|--------------------|

E|--------------7-----|--------------7-----|--------------7-----|

you!





G|------ ------ ------|------ ------ ------|------ ------ ------|

D|4-------------------|--------------------|--------------------|

A|--------------------|--------------------|--------------------|

E|--------------------|--------------------|--------------------|



Please e-mail me for any corrections, or write a comment.Added by tabs-database.com and our distinguished partners
Get this song at amazon.com      Ebay     Ringtones Ringtones  


Learn to play: Songwriting, Piano, Harmonica, Guitar

Related Beatles Tabs

Dig A Pony tabs
From Me To You tabs
Ill Be On My Way tabs
Im A Loser tabs
Rocket Man tabs
Here There Everywhere tabs
Youre Going To Lose That Girl Bass tabs
Ill Cry Instead tabs
Girl tabs
Cant Buy Me Love tabs
Ticket To Ride tabs
Backintheussr tabs
Wecanworkitout tabs
Think For Yourself Bass tabs
Goldenslumbers tabs
Heyjude tabs
The Night Before tabs
Lucy In The Sky tabs
Because tabs
Get Back tabs


Guitar Tabs









All tabs are property and copyright of their owners. All tabs provided for educational purposes only. Privacy Policy, DMCA