Bates

Bates - Billie Jean guitar chord

#-----------------------------PLEASE NOTE-------------------------------------#

#This OLGA file is the author's own work and represents their interpretation #

#of the song. You may only use this file for private study, scholarship, or #

#research. Remember to view this file in Courier, or some other monospaced #

#font. See http://www.olga.net/faq/ for more information. #

#-----------------------------------------------------------------------------#

Subject: b/bates/billie_jean.tab

Artist: THE BATES

Song: BILLIE JEAN

Album: PLEASURE + PAIN

------------------------

CHORDS:

D E F C B A G Dtype2

e|-x---x---x---x-----6---5-----x----x--|

h|-x---x---x---x-----6---5-----x----x--|

g|-7---9---10--5-----7---8-----12---x--|

D|-7---9---10--5-----8---7-----12---12-|

A|-5---7---8---3-----8---7-----10---12-|

E|-x---x---x---x-----6---5-----x----10-|

BASS on intro:

A|-0-3-5-5-5-5-5-5-|-5(8times) four times

BASS RIFF (during the verses):

A|-0-3-5-5-5-5-5-5-|-5(8times):|-0-3-5-0-0-0-0-0-|-0(8times)

A|-0-3-5-5-5-5-5-5-|-5(8times)-|-0-3-5-0-0-0-0-0-|-0(8times)

A|-0-3-5-5-5-5-5-5-|-5(8times)

GUITAR1 RIFF: palm muted

A|-5-0-3-5-3-0----

E|-------------3-5

Get this song at:  amazon.com sheetmusicplus.com

Share your thoughts

0 Comments found