Bastille

The Silence Chords, Tabs



More from Bastille

Bastille Tabs
Bastille Chords
Bastille Bass
Bastille Lyrics

Intro
G|--------------|
D|-10-9---------|
A|-------7--10--|
E|--------------|

G|--------------|
D|-10-9---------|
A|--------10----|
E|--------------|



Verse (Tell me a piece of your...)
G|--------------|
D|-10-----------|
A|-------10-----|
E|-----------8--|

Pre-Chorus (Now you've hit a wall...)
G|--------------|
D|---10---------|
A|-7-----10-----|     *I prefer to play 7 on the A string on the Open E string*
E|----------10--|


Chorus (It is not enough...)
G|--------------|
D|-10-----------|
A|-----10-------|
E|--------10----|


(you must have the words...)
G|--------------|
D|-10-----------|
A|-----10--7----|
E|-----------7--|

(and Oh oh can you feel the silence?...)
G|--------------|
D|-10-----------|
A|-------10-----|
E|--------------|

(I can't take it anymore...)
G|--------------|
D|--------------|
A|-7------------|
E|-------10-----|

(cause it is not enough...)
G|--------------|
D|-10-----------|
A|-----10-------|
E|--------10----|


Bridge (If you give it a name) As the bass player you don't play the firt two parts of 
the bridge
G|-------------------------|
D|-10---------10-----------|
A|-----10---------10--7----|
E|---------10------------7-|


REPEAT CHORUS

OUTRO (Same as intro)

G|--------------|
D|-10-9---------|
A|-------7--10--|
E|--------------|

G|---------------|
D|-10-9----------|
A|--------10\----|
E|---------------|
Get this song at amazon.com      Ebay     Ringtones Ringtones  


Learn to play: Songwriting, Piano, Harmonica, Guitar
Also available at Muzikum: Bastille - The silence lyrics

Related Bastille Chords

The Draw chords
Pompeii chords
Icarus chords
Laughter Lines chords
Skulls chords
Durban Skies chords
Weight Of Living Part 1 chords
Of The Night chords
The Silence chords
What Would You Do chords
Sleepsong chords
Flaws chords
Haunt chords
Poet chords
Daniel In The Den chords
Bad Blood chords
Laura Palmer chords
Things We Lost In The Fire chords
These Streets chords
Alchemy chords


Guitar Tabs









All tabs are property and copyright of their owners. All tabs provided for educational purposes only. Privacy Policy, DMCA