Bastille

Pompeii Bass Tabs



More from Bastille

Bastille Tabs
Bastille Chords
Bastille Bass
Bastille Lyrics

Intro - No Bass

Verse - "And the walls..."
|-------------------|
|-------------------|
|-55-57-------------|x2
|------55-522-200-0-|

Chorus - Part 1 - "But if you close your eyes"
|----------------------------------|
|----------------------------------|
|-55555555-------------------------|x2
|---------555555552222222200000000-|

Chorus - Part 2 - "How am I gonna be an optimist about this?"
|-------------------------|
|-------------------------|
|-55-5-7-9-12-9-7-7-16-14-|x2
|-------------------------|

Bridge - "We were caught up..."
|---------------------------------|
|---------------------------------|
|-5-5-5-5-------------------------|x2
|---------5-5-5-4-2-2-2-2-0-0-0-0-|

Verse - "And the walls..."
|-------------------|
|-------------------|
|-55-57-------------|x2
|------55-522-200-0-|

Break - No Bass

Chorus - Part 1 x2

Chorus - Part 2 x2

Chorus - Part 1 x1

Break - No Bass

Chorus - Part 1 x2

Chorus - Part 2 x2

Chorus - Part 1 x1

Outro - No Bass
Get this song at amazon.com      Ebay     Ringtones Ringtones  


Learn to play: Songwriting, Piano, Harmonica, Guitar
Also available at Muzikum: Bastille - Pompeii lyrics

Related Bastille Bass Tabs

Pompeii bass


Guitar Tabs









All tabs are property and copyright of their owners. All tabs provided for educational purposes only. Privacy Policy, DMCA