Bass Lessons

Bass Lessons - G Flat Scales And Arpeggios bass tab

G Flat Major Scale:

G|--------------------------

D|-----------------1--3--4--

A|--------1--2--4-----------

E|--2--4--------------------

Finger: 2 4 1 2 4 1 3 4

G Flat Major Arpeggio:

G|--------------------------

D|-----------4--------------

A|-----1--4-----4--1--------

E|--2-----------------2-----

Finger: 2 1 4 4 4 1 2

G Flat Natural Minor Scale:

G|--------------------------

D|--------------------2--4--

A|-----------2--4--5--------

E|--2--4--5-----------------

Finger: 1 3 4 1 3 4 1 3

G Flat Harmonic Minor Scale:

G|--------------------------

D|--------------------3--4--

A|-----------2--4--5--------

E|--2--4--5-----------------

Finger: 1 3 4 1 3 4 2 3

G Minor Arpeggio:

G|--------------------------

D|-----------4--------------

A|--------4-----4-----------

E|--2--5-----------5--2-----

Finger: 1 4 3 3 3 4 1

"Finger" means which finger is used by the fretting hand to press

down the string to the fret. The Pinky finger being "4" and the

pointing finger being "1."

Tabbed by Andrew V.

Get this song at:  amazon.com sheetmusicplus.com

Share your thoughts

0 Comments found