Bass Lessons

Bass Lessons - G Flat Major Scale (2 Octave And Arpeggio) bass tab

Scale:

G:-----------------1-3-4-6-8-10-11-10-8-6-4-3-1-----------------

D:-----------1-3-4------------------------------4-3-1-----------

A:-----1-2-4------------------------------------------4-2-1-----

E:-2-4------------------------------------------------------4-2-

Arpeggio:

G:---------3-6-11-6-3---------

D:-------4------------4-------

A:---1-4----------------4-1---

E:-2------------------------2-

Get this song at:  amazon.com sheetmusicplus.com

Share your thoughts

0 Comments found