Bach J S

Bach J S - Orchestral Suite 3 guitar tab

Johann Sebastian Bach

Orchestral Suite No.3 in D Major

letostak@netcom.com

This one is also a pretty good excersize.

|---------------------------------------------------|-------------14-17-16--

|-15-----------------------------15-------15----14--|-15----15-17-----------

|----14----14-----------------14--------------------|----14-----------------

|-------16--------16-14-17-16-------16-14----14-----|-----------------------

|--------------17-----------------------------------|-----------------------

|---------------------------------------------------|-----------------------

-19-17-------17----17----16-|-17--------------------------------------------

-------17-------------------|----17-------17-19-17-19-20-17-----------------

----------18----16----16----|-------18-19-------------------------18-19-18--

----------------------------|-------------------------------19-21-----------

----------------------------|-----------------------------------------------

----------------------------|-----------------------------------------------

-----|-------------------------------14-15-14-----------|----14-------------

-----|-17----------17-------------17----------17-15-14--|-15----15-14-15-17-

-19--|----19-18-19----19-18-16-15-----------------------|-------------------

-----|--------------------------------------------------|-------------------

-----|--------------------------------------------------|-------------------

-----|--------------------------------------------------|-------------------

-------14-17-------14-15-14-15--|-17----------17----------------------14-15-

-15-17-------16-17--------------|----13-12-13----13-12-------14-16-17-------

--------------------------------|----------------------14-16----------------

--------------------------------|-------------------------------------------

--------------------------------|-------------------------------------------

--------------------------------|-------------------------------------------

-17-14-|-15-------------------15-14-------------------14-|-12---------------

-------|----17----15-14-17----------15----------15-------|----14----12-11-14

-------|-------16----------14----------14-17-16----12----|-------13---------

-------|-------------------------------------------------|------------------

-------|-------------------------------------------------|------------------

-------|-------------------------------------------------|------------------

----12-------------12-14-15-12-|-----------||

-------15-12-14-15-------------|-15~-------||

-11----------------------------|-----------||

-------------------------------|-----------||

-------------------------------|-----------||

-------------------------------|-----------||

Get this song at:  amazon.com sheetmusicplus.com

Share your thoughts

0 Comments found