Bach J S

Bach J S - Lute Suite Gigue guitar tab

J.S. Bach

Gigue from the Lute Suite in E Minor

Guitar Tablature by Philip Delaquess (delaques@gcg.com)

The | mark eigth-note beats, of which there should be about 120 per minute,

adjusted to your own taste and abilities. It kicks butt on a twelve-string.

Part A -- play twice

| | | | | | | | | | | |

E -----------------|-----------------|------------0----|-----------------|

B -----------------|-----------------|---0-----------0-|1--0-------------|

G -----------------|-----------------|0-----0----------|------2--0-------|

D ---2--0----------|------2-----4----|---------2-------|------------4--2-|

A ---------3--2--0-|-----------------|-----------------|0-----2-----3----|

E -----------------|3-----------2----|0-----2-----3----|-----------------|

| | | | | | | | | | | |

E ------------7----|3--2--0----------|-----------------|-----------------|

B ---7--4--------7-|---------3--1--0-|1--3--1--0-------|---0--1--0-------|

G ---------4-------|------------0----|2--4--2--0--2--0-|2--0--2--0--2--0-|

D 1----------------|2-----4----------|------------4--2-|4-----------4--2-|

A 2-----4-----6----|-----------------|-----------------|-----------------|

E -----------------|-----------------|-----------------|-----------------|

| | | | | | | | | | | |

E -----------------|-----------------|-----------------|-----------------|

B -----------------|-----------------|-----------------|0--1--0----------|

G -----------------|0-----------1----|2-----------3----|---------2--0----|

D 4-----------4----|2-----------2----|---2--------4----|0-----------1--4-|

A ---3--2--0-------|---2-----------2-|3-----3--------4-|------4----------|

E ------------3--2-|0-----3--0-------|---------5-------|-----------------|

| | | | | | | | | | | |

E ------0-----2----|3--5--3--2--0----|------------0----|2--3--2--0-------|

B -----------------|---------------3-|2-----3----------|------------3----|

G 0--2--0----------|-----------------|2--4--2--0-------|---------------5-|

D 2--------4--2--1-|2-----4-----5----|------------4--2-|0-----2-----4----|

A -----------------|-----------------|-----------------|-----------------|

E -----------------|-----------------|-----------------|-----------------|

| | | | | | | | | | | |

E ------------3----|0----------------|---0--------5--0-|2----------------|

B ---3-----------3-|1-----------1----|------2----------|3-----------3----|

G 4-----4-----4----|---0-----------0-|---------2-------|---2-----------2-|

D 5--------5-------|------2----------|-----------------|0-----4----------|

A -----------------|---------3-------|0-----------4----|---------5-------|

E -----------------|-----------------|-----------------|-----------------|

| | | | | | | | | | | |

E ------------3----|0----------------|-----------------|-----------------|

B ---3--0--------3-|---3--1--0-------|-----------------|0-----1-----3----|

G ---------0-------|------------2--0-|------0-----2----|---2--0----------|

D -----------------|------0-----2----|4-----0----------|---------3--2--0-|

A 2-----0-----2----|3----------------|5--7-----3--2--0-|-----------------|

E -----------------|-----------------|-----------------|3----------------|

| | | | | | | | | | | |

E 0--3--8--7--5----|---------0-------|-----------------|-----------------|

B 1--------------8-|7--8--7-----3----|0-----------0----|-----------------|

G -----------------|---------------5-|-----------------|2-----------2----|

D ------0----------|0-----------4----|5-----------2----|---2--------4----|

A 3-----------7----|------7----------|---2-----------2-|3-----3--------5-|

E -----------------|-----------------|------3--0-------|---------5-------|

| | | | | | | | | | | |

E -----------------|-----------------|---2--0----------|3--2--0----------|

B ---0-------------|1--0-------------|---------4--2--0-|---------3--2--0-|

G 0-----2--0-------|------2--0-------|-----------------|-----------------|

D ------------4--2-|------------4--2-|1-----------1----|2-----4-----5----|

A -----------------|0-----2-----3----|2-----4----------|-----------------|

E 3-----------3----|-----------------|-----------------|-----------------|

| | | | | | | | | | | |

E ------------2----|-----------------|0-----0-----0--2-|3----------------|

B ---2-----------2-|3-----------4----|0--4--0--4--0----|------232------0-|

G 3-----3-----3----|4-----------4----|0-----0-----0----|------------3----|

D 4--------4-------|---4--0-------4--|---4-----4-----4-|2-----4----------|

A -----------------|---------2-------|-----------------|-----------------|

E -----------------|-----------------|-----------------|------------2----|

| | | | | | | | | | | |

E -----------------|------------0----|---0--2--0-------|-----------------|

B 0-----------0----|---------0-------|0-----------4--2-|4----------------|

G -----------------|0-----0--------3-|---0--2--0-------|4----------------|

D ---4--1--4-----4-|---2-------------|------------4--2-|4----------------|

A 2-----2-----2----|2-----2-----2----|2----------------|2----------------|

E -----------------|-----------------|-----------------|-----------------|

PART B - play twice

| | | | | | | | | | | |

E -----------------|-----------------|---0--2--3--5--7-|8-----7-----3----|

B -----------------|-----------------|-----------------|-----------------|

G -----------------|0----------------|-----------------|------------4--5-|

D ---------1--2--4-|------------4----|2-----------0----|---4--5--7-------|

A ---2--4----------|------------0--2-|3----------------|0----------------|

E -----------------|---0--2--3-------|------------7----|-----------------|

| | | | | | | | | | | |

E 5--------0-------|------0--2--3--5-|7-----------0--2-|3--------0--3----|

B ---8--7-----3----|---3-------------|---0--1--3-------|------0--------1-|

G 7--------------5-|4-----------2----|0----------------|---0--------2----|

D -----------------|-----------------|------------4----|2----------------|

A -----------------|-----------------|-----------------|-----------------|

E -----------------|-----------------|-----------------|-----------------|

| | | | | | | | | | | |

E 2-----------2----|0-----------0----|-----------------|-----------------|

B ---------3-----0-|---------1-------|4-----------3----|2----------------|

G ------2-----0----|------0--------2-|---------4-----1-|---------2--5----|

D 0--4-------------|---2--------4----|------4-----2----|------2--------4-|

A -----------------|3----------------|---6-------------|0--4--------5----|

E -----------------|-----------------|7----------------|-----------------|

| | | | | | | | | | | |

E -----------------|0-----0--2--3--5-|7----------------|0----------------|

B 0--------0--1--3-|---3-------------|------0--1--3----|-----------------|

G ---0--2----------|-----------------|0--2--0--2--4----|0-----2--------0-|

D -----------------|---------0--2--4-|---4-----------5-|---2--------4----|

A ------------0--2-|3--2--3----------|-----------------|3-----0--3--5----|

E 3--------3-------|-----------------|-----------------|-----------------|

| | | | | | | | | | | |

E ---------3-----2-|0----------------|---------5-----3-|2----------------|

B ---0--3----------|1--------1-------|---2--5----------|3--------3-------|

G 0-----------0----|------0--------0-|2-----------2----|------2--------2-|

D -----------------|---2-------------|-----------------|0--4--------0----|

A ------------2----|3-----------3----|4----------------|-----------------|

E 3----------------|-----------------|-----------------|-----------------|

| | | | | | | | | | | |

E ---------7-----5-|3--------8-----7-|0--------5-----3-|---------1-----0-|

B ---4--7----------|------0-----7----|------------3----|1-----------0----|

G 4-----------4----|---0-----9-----7-|------2--5-----4-|---------2-----0-|

D -----------------|2-----------0----|---2-------------|------3----------|

A 6----------------|-----------------|3-----------2----|0--3-------------|

E -----------------|-----------------|-----------------|------------3----|

| | | | | | | | | | | |

E ---8--------7----|---7--------5----|---5--------3----|---3-----------5-|

B ------10-------7-|8-----8--------5-|7-----7--------3-|5-----5-----6----|

G 8--------11------|---------9-------|---------7-------|---------5-------|

D -----------------|-----------------|-----------------|-----------------|

A 9-----------6----|7-----------4----|5-----------2----|3-----------0----|

E -----------------|-----------------|-----------------|-----------------|

| | | | | | | | | | | |

E ---2-----------3-|---8--5-----8----|-----------------|------------0--2-|

B 4-----4-----5----|---------6-----5-|4----------------|---0--2--4-------|

G ---------4-------|5----------------|4----------------|-----------------|

D -----------------|------------7----|---------------4-|5-----------4----|

A 2----------------|-----------------|------4--6--7----|-----------------|

E ------------3----|5----------------|---7-------------|-----------------|

| | | | | | | | | | | |

E 3----------------|0----------------|------0----------|-----------------|

B ---------0--1--3-|---------------0-|1--3-----3--1--0-|-----------------|

G ---0--2----------|---------0--2----|-----------------|2--0-------------|

D 2-----------0----|---2--4----------|------------2----|2-----4--2--4--1-|

A -----------------|3-----------2----|0-----3----------|0-----2-----2----|

E -----------------|-----------------|------------3----|-----------------|

| | | | | | | | | | | |

E ------------0----|---------0--5----|0----------------|-----------------|

B ---0-----0-----0-|1-----1--------4-|---10-9--7--5--4-|5----------------|

G ------1----------|---2-------------|-----------------|4----------------|

D 2----------------|-----------------|---10-9--7--6--4-|6----------------|

A -----------------|-----------------|-----------------|-----------------|

E 0-----0-----0----|0-----0-----0----|0----------------|0----------------|

===============================================================================

Philip Delaquess | Ecx malgranda muso,

delaques@gcg.com | Ne estas sen anuso.

-------------------------------------------------------------------------------

Bonvolu skribi min Esperante.

===============================================================================

Get this song at:  amazon.com sheetmusicplus.com

Share your thoughts

0 Comments found