Bach J S

Bach J S - Cello Suite guitar tab

Johann Sebastian Bach

Prelude Cello Suite III

letostak@netcom.com

|-------------------------------------|----7-------------------------------|

|--2--5--2----------------------5-----|-------7-----------------7--9--10--7|

|-----------3-----1--3--4--6h7-----6--|-7--------7-----6--7--9-------------|

|--------------4----------------------|-------------9----------------------|

|-------------------------------------|------------------------------------|

|-------------------------------------|------------------------------------|

|-----------------------------------------|---------------------------------

|-9--12--9--------------------9--10-12--9-|-10--12--10--9-------------------

|-----------10------8--10-11--------------|----------------11---------------

|---------------11------------------------|--------------------12--11--9----

|-----------------------------------------|---------------------------------

|-----------------------------------------|---------------------------------

---------------|--------------------------------------|----------------4----

---------------|--------------------------9--6--7-----|----------7--6-------

---------------|-----------------6--7-----------------|-------4-------------

---------------|--------6--8--9--------9-----------9--|----6----------------

-12--11--9--7--|-----9--------------------------------|-4-------------------

---------------|-10-----------------------------------|---------------------

-----------|

-----6--7--|

--6--------|

-----------|

-----------|

-----------|

Get this song at:  amazon.com sheetmusicplus.com

Share your thoughts

0 Comments found