Babyshambles

Babyshambles - 8 Dead Boys guitar tab

INTRO

DISTORTED

E|-----------3-3-3-------------1------------3-3-3-3_|

B|--2----1---3-3-3-------------1------------2-2-2-2-|

G|--2----2----------2-2-2-2----1------------3-3-3-3-|

D|--2----0----------1-1-1-1----3--------------------|

A|--0----3---2-2-2--2-2-2-2----3--------------------|

E|-----------3-3-3-------------1--3-4-3-0-----------|

A C G D

E|------------------------------------------------------|

B|--5-5-7-7b--0--8-8-10-10b--0--3-3-5-5b--1-0-1-0-1-0-1-|

G|------------------------------------------------------|

D|------------------------------------------------------|

A|------------------------------------------------------|

E|------------------------------------------------------|

(A) (C)

Sit right down because you're a friend,

(G) (D)

you know there aint too many left of them,

(A) (C) (G) (F)

who said I want love.......I want it all

(Dm) (F) (G)

Well you look better now than the last time,

(Dm) (F) (G)

but you still look better from afar,

(Dm) (F) (G)

The life that you wanted was not in store

(Dm) (F) (G)

you'l be in the dark once a again

A C G D x 2

Continue playin these chords for the verse, and the chorus is just the same.

Then the intro riffs gets played again. Same as above.

This is the only time the chords change...

A5 E5

When it suits you, you're a friend of mine

F5 D5

When it suits you, you're a friend of mine

IM NOT SURE HOW MANY TIMES THAT GETS PLAYED, BUT JUST KEEP

REPEATING THOSE CHORDS FOR THAT PART.

THE CHORUS GETS PLAYED AGAIN

THEN THE INTRO AGAIN.

SAME AS ABOVE.

ENJOY

ALAN MC

RIP IT UP

Added by tabs-database.com and our distinguished partners

Get this song at:  amazon.com sheetmusicplus.com

Share your thoughts

0 Comments found