Avril Lavigne

Avril Lavigne - Falling Into History Fell Out guitar chord

Avril Lavigne

Falling Into History

Let Go B-sides

2001 BMG Records

Submitted by boxcar_avie@yahoo.com

Tuning: EADGBe

Capo on 1st Fret

With a shape of D, it will sound D# or Eb

Chords used:

D- xx0232

Em7- 022030

D/F#- 2x023x

Bm- x24432

A/C#- x4222x

G- 320033

A- x02220

Asus4- x02230

G/B- x20003

F- 133211

C- x32010

Em- 022000

Gm- 355333

Intro: (Cool plucking will start at 0:07)

D Em7 D/F# Bm A/C# D

e|-----------|------|------|-----------|------|------|

B|-----3-----|----3-|----3-|-----3-----|----3-|----3-|

G|---2---2-2-|---2--|---2--|---2---2-2-|---2--|---2--|

D|-0------0--|------|------|-----------|------|-0----|

A|-----------|------|------|-2------2--|-4----|------|

E|-----------|-0----|-2----|-----------|------|------|

G Asus4 D/F# G Asus4

e|-----3-2-0-|-----------|-------|----------|--------|

B|-----3-3-3-|-----3-----|----3--|----------|-----3--|

G|---2-------|---2---2-2-|---2-2-|-2--------|----2---|

D|-----------|--------0--|-------|----------|--------|

A|-----------|-0---------|-------|----0-0h2-|-p0-----|

E|-3---------|-----------|-2-----|-3--------|--------|

Verse 1: (Do intro plucking for other guitar)

D Em7 D/F# Bm

Don't matter what people say,

A/C# D G

I never did believe them,

A D/F# G A

I know, I know they know everything

D Em7 D/F# Bm

I'll be alright by myself,

A/C# D G A

and no one's gonna tell me I'm defined,

D/F# G A

confined by love

F C D A

now our days seems strange,

Em Gm Asus4 A

I guess my heart was bound to change

Chorus:

G Asus2 G/B

I fell out, out of you and me

A/C# D G

you're fading from view

Asus4 D/F# G

and you're falling into history

A G Asus2 G/B

I fell out, out of you and me

A/C# D G

you're fading from view

Asus4 D/F# G A

and you're falling into history

Verse 2: (Still do intro plucking for other guitar)

D Em7 D/F# Bm

I never thought that I'd say,

A/C# D G

that I don't really miss you,

A D/F# G A

I lived, I breathed your breath through me

D Em7 D/F# Bm

time has a way of passing by,

A/C# D G A D/F# G A

until I don't remember why or how to hurt for you

F C D A

love's pain has gone somewhere,

Em Gm Asus4 A

and I'm finally be there

(Repeat Chorus)

Bridge:

Em7 C A/C# C

Falling into, falling into, you're falling into history, yeah

Em7 G/B A/C# C

falling into, falling into, you're falling into history

(Repeat Intro)

(Repeat Chorus)

Outro:

D Em7 D/F# Bm

I'll be alright by myself,

A/C# D G A

and no one's gonna tell me I'm defined,

D/F# G A

confined by love

Get this song at:  amazon.com

Share your thoughts

0 Comments found