Avril Lavigne

Avril Lavigne - Contagious guitar tab

-------------------------------------------------------------------------------

CONTAGIOUS - Avril Lavigne

-------------------------------------------------------------------------------

Tabbed by: Tom

Email: temporarilyinlove@hotmail.com

Tuning: Standard

For those who wish to play the song in standard tuning =].

Intro/Verse (Lead)

e|---------------------------------------------------------------------------|

B|---------------------------------------------------------------------------|

G|------10----------11----------10---------10--------------------------------|

D|---11----11----11----11----11----11---11----11-----------------------------|

A|-8-----------9-------------------------------------------------------------|

E|-------------------------9----------9--------------------------------------|

Verse (Rhythm)

C#/F F#5 C#5

e|---------------------------------------------------------------------------|

B|---------------------------------------------------------------------------|

G|---------------------------------------------------------------------------|

D|-11-11-11-11-11-11-11-11---------------------------------------------------|

A|-8--8--8--8--9--9--9--9--11-11-11-11-11-11-11-11---------------------------|

E|-------------------------9--9--9--9--9--9--9--9----------------------------|

PM...............................................|

Pre-Chorus

C#/F F#5 C#5 G#5

e|---------------------------------------------------------------------------|

B|---------------------------------------------------------------------------|

G|---------------------------------------------------------------------------|

D|-11----------11------------------------------------------------------------|

A|-8-----------9-----------11----------6-------------------------------------|

E|-------------------------9-----------4-------------------------------------|

C#/F F#5 C#5 G#5

e|---------------------------------------------------------------------------|

B|---------------------------------------------------------------------------|

G|---------------------------------------------------------------------------|

D|-11----------11------------------------6-6-6-6-6-6-6-----------------------|

A|-8-----------9-----------11----------6-6-6-6-6-6-6-6-----------------------|

E|-------------------------9-----------4-4-4-4-4-4-4-4-----------------------|

PM.............| (gradual release)

Chorus

F#5 C#5 G#5 Bb5

e|---------------------------------------------------------------------------|

B|---------------------------------------------------------------------------|

G|--------6--6-6-6-----------------------------------------------------------|

D|-4-4-4--6--6-6-6--6-6-6--8--8-8-8------------------------------------------| (x3)

A|-4-4-4--4--4-4-4--6-6-6--8--6-6-6------------------------------------------|

E|-2-2-2------------4-4-4--6--6-6-6------------------------------------------|

F#5 C#5 G#5 F5 | 2nd Chorus

e|-------------------------------------------------------------|-------------|

B|-------------------------------------------------------------|-------------|

G|--------6--6-6-6---------10-10-10-10-10-10-10-10-10-10-10-10-|-10-10-10-10-|

D|-4-4-4--6--6-6-6--6-6-6--10-10-10-10-10-10-10-10-10-10-10-10-|-10-10-10-10-|

A|-4-4-4--4--4-4-4--6-6-6--8--8--8--8--8--8--8--8--8--8--8--8--|-8--8--8--8--|

E|-2-2-2------------4-4-4--------------------------------------|-------------|

Bridge

F#5 C#5 F#5 C#5

e|---------------------------------------------------------------------------|

B|---------------------------------------------------------------------------|

G|-11---11-11--------------11---11-11----------------------------------------|

D|-11---11-11--11---11-11--11---11-11--11---11-11----------------------------|

A|-9----9--9---11---11-11--9----9--9---11---11-11----------------------------|

E|-------------9----9--9---------------9----9--9-----------------------------|

F#5 C#5 F5

e|---------------------------------------------------------------------------|

B|---------------------------------------------------------------------------|

G|-11---11-11--------------10-10-10-10-10-10-10-10-10-10-10-10-10-10-10-\----|

D|-11---11-11--11---11-11--10-10-10-10-10-10-10-10-10-10-10-10-10-10-10-\----|

A|-9----9--9---11---11-11--8--8--8--8--8--8--8--8--8--8--8--8--8--8--8--\----|

E|-------------9----9--9-----------------------------------------------------|

| / slide up

| \ slide down

| h hammer-on

| p pull-off

| ~ vibrato

| + harmonic

| x Mute note

===============================================================================

Get this song at:  amazon.com sheetmusicplus.com

Share your thoughts

0 Comments found