Avril Lavigne

Who Knows Tabs



More from Avril Lavigne

Avril Lavigne Tabs
Avril Lavigne Chords
Avril Lavigne Bass
Avril Lavigne Lyrics



Who Knows
Avril Lavigne
Under My Skin
Tabbed by: blink182g2007

Standard Tuning
* Palm Mute

INTRO - Clean - 1st Part
e-------------------------------------
b--------------------------------5-7--
g------7--------5p-4----4-------------
d----9---9/---5-------5---5/---7------
a--7--------3----------------5--------
E-------------------3-----------------

e-------------------------------------------------------
b-------------------------------------------------------
g------7--------5p-4----4--------7~~~--x-x-x---x-x-x-x--
d----9---9/---5-------5---5-----7~~~---x-x-x---x-x-x-x--
a--7--------3------------------5~~~----x-x-x---x-x-x-x--
E-------------------3---------5~~~-----x-x-x---x-x-x-x--

INTRO - The lead guitar when the music comes in. - 2nd Part
e------------------------------------------
b---------------------------3~-------7h8~--
g------7~------4h5p4~----------------------
d----9~------5~----------5~-------7~------- 2x
a--7~------3~------------------5~----------
E---------------------3~-------------------

VERSE
These are the chords the acoustic guitar strums troughout the verse.
e--0---0---3---2--
b--0---1---3---3--
g--0---0---0---2--
d--2---2---0---0--
a--2---3---2---0--
E--0---3---3---x--
"Why do you look so familar..."

Lead part for verse - He does some little hits on the strings
with an effect, not really worth tabbing out but he hits the
7th, 5th, and 8th fret on the b string through it, just listen
to it closely. He also plays the first part of the intro again
after hes done with that^.And with a delay effect he also plays
this for the last four measures of the verse(4 time)...
e--------------------------------------
b--------------------------------------
g--9-9-9-9--5-5-5-5-----------7-7-7-7--
d--9-9-9-9--5-5-5-5--5-5-5-5--7-7-7-7--
a--7-7-7-7--3-3-3-3--5-5-5-5--5-5-5-5--
E--------------------3-3-3-3-----------

PRE-CHORUS - Distorted
e-----------------------------
b-----------------------------
g--x-x-2--2-2-2--4-5-5-5-5-5--
d--x-x-2--2-2-2--4-5-5-5-5-5--
a--x-x-0--0-0-0--2-3-3-3-3-3--
E-----------------------------
"I think there's something more..."

CHORUS - Distorted
Acoustic plays same thing only strums 320033, x32033.
e----------------------------
b----------------------------
g---------------5-5-5-5-5-5--
d--5-5-5-5-5-5--5-5-5-5-5-5-- 2x
a--5-5-5-5-5-5--3-3-3-3-3-3--
E--3-3-3-3-3-3---------------
"Who knows what will happen..."

Then play the pre-chorus right after you repeat the chorus twice.
Then play the intro 2nd part twice.
Then play the verse but at the last half of it play this distored 2x.
e------------- e---------
b------------- b---------
g--12-12--12-- g--11/12--
d---x--x---x-- 3x d---x--x--
a--10-10--10-- a---9/10--
E------------- E---------
* *

Then play pre-chorus and chorus 4x and then pre-chorus again.

BRIDGE
Guitar 1 - Use a wahh affect of somekind for this.
e----------------
b----------------
g----------------
d--9~~~~-10~~~~-- 2x
a--x~~~~--x~~~~--
E--7~~~~--8~~~~--

Guitar 2
e------------------------------------------
b------------------------------------------
g----------------------5-5--5-5--5-5--5-5--
d--5-5--5-5--5-5--5-5--5-5--5-5--5-5--5-5-- 2x
a--5-5--5-5--5-5--5-5--3-3--3-3--3-3--3-3--
E--3-3--3-3--3-3--3-3----------------------

e------------------------------------------
b------------------------------------------
g--5-5-5/7-7-7/9-9-9/11-11-11/12-12-12-12--
d--x-x-x/x-x-x/x-x-x/-x--x--x/-x--x--x--x--
a--3-3-3/5-5-5/7-7-7/-9--9--9/10-10-10-10--
E------------------------------------------
"day~~~~~..."

Play chorus 2x and play (x5x7xx/x7x9xx/x10x12xx~~~) on the 2nd
time of the chorus. You should hear it if u listen closely.
Then end with the pre-chorus and let last note ring.


Get this song at amazon.com      Ebay     Ringtones Ringtones  


Learn to play: Songwriting, Piano, Harmonica, Guitar
301 Moved Permanently

Moved Permanently

The document has moved here.

Related Avril Lavigne Tabs

Complicated. tabs
Sk8er Boi2 tabs
Sk8er Boi tabs
Naked Acoustic tabs
Nobodys Home tabs
He Wasnt Acoustic tabs
Complicated (live & Cd) tabs
I'm With You tabs
Im With You tabs
Contagious tabs
Something Isnt Right tabs
Sk8er Boi Acoustic tabs
I Dont Give Live tabs
Alone tabs
Let Go Album tabs
He Wasnt Live tabs
Innocence tabs
One Of Those Girls tabs
Mobile Acoustic tabs
Best Dman Thing tabs


Guitar Tabs




All tabs are property and copyright of their owners. All tabs provided for educational purposes only. Privacy Policy, DMCA