Avril Lavigne

Unwanted (live) Tabs



More from Avril Lavigne

Avril Lavigne Tabs
Avril Lavigne Chords
Avril Lavigne Bass
Avril Lavigne Lyrics



Artist - Avril Lavigne
Song name Unwanted (Live on Radio One)
Album - Let Go

Tuning Standard (EADGBE)

E5 022xxx || A/C# - 047xxx
C5 0355xx || A5 - 577xxx
D5 0577xx || Am x02210
Em - 022000 || A - x02220
C - x32010 ||
D - xx0232 ||

h = hammer on b = bend
/ = slide up r = release bend
= slide down
~ = vibrato


[INTRO]
Guitar 1
**** **** **** ****
e/|--0--------0--------3--------0------------------------|
B||--0--------1--------2--------2------------------------||
G||--0--------0--------3--------2------------------------||
D||--2--------2--------0--------2------------------------||
A||--2--------3--------x--------0------------------------||
E|--0--------x--------x--------x------------------------|/

Guitar 1
**** **** **** **** **** **** **** ****
e/|--0----0----3----0----0----0----3----0----------------|
B||--0----1----2----2----0----1----2----1----------------||
G||--0----0----3----2----0----0----3----2----------------||
D||--2----2----0----2----2----2----0----2----------------||
A||--2----3----x----0----2----3----x----0----------------||
E|--0----x----x----x----0----x----x----x----------------|/
| |
| Guitar 2 distorted |
| |
e/|------------------------------------------------------|
B||------------------------------------------------------||
G||-------5----7--------------5----7---------------------||
D||--2----5----7----7----2----5----7----7----------------||
A||--2----3----5----7----2----3----5----4----------------||
E|--0----0----0----5----0----0----0----0----------------|/


[VERSE 1]

Guitar 1 plays this 10 times

e/|------------------------------------------------------|
B||------------------------------------------------------||
G||-------0--------0--------0----------------------------||
D||--2---------5-5------7-7----------7-------------------||
A||--2---------3-3------5-5------7-7---------------------||
E|--0--0------------------------5-5---------------------|/

Guitar 2 distorted comes in the 5th times
5th time
e/|------------12----------------------------------------|
B||---------------------12-------------------------------|
G||-------------------------------12---------------------|
D||------------------------------------------------------|
A||------------------------------------------------------|
E|------------------------------------------------------|

6th time
e/|-----------12-----------------15----------------------|
B||---------------------12-------------------------------|
G||------------------------------------------------------|
D||------------------------------------------------------|
A||------------------------------------------------------|
E|------------------------------------------------------|

7th and 8th time
** ** ** **
e/|------------------------------------------------------|
B||------------------------------------------------------|
G||-----------5---------7--------------------------------|
D||--2--------5---------7--------7-----------------------|
A||--2--------3---------5--------7-----------------------|
E|--0---------------------------5-----------------------|

9th time
e/|------------------------------------------------------|
B||-------0--------0--------0----------------------------|
G||---------------------------------7--------------------|
D||--2---------5-5------7-7------------------------------|
A||--2---------3-3------5-5------77----------------------|
E|--0--0------------------------55----------------------|

10th time
e/|------------------------------------------------------|
B||-------0--------0--------0----------------------------||
G||------------------------------------------------------||
D||--2---------5-5------7-7------7-7-7-------------------||
A||--2---------3-3------5-5------7-7-7-------------------||
E|--0--0------------------------5-5-5-------------------|/


[CHORUS]

E5/Em C5/C
You don't know me, don't ignore me

D5/D A5/A E5/Em C5/C D5/D A5/A
You don't want me there you just shut me out

E5/Em C5/C
You don't know me, don't ignore me

D5/D A5/A E5/Em C5/C
If you had your way you'd just shut me out

D5/D C5/C E5/Em C5/C D5/D A/C#/Am
Make me go away

Guitar 1
Em C D Am

Guitar 2 distorted
** ** **
e/|------------------------------------------------------|
B||------------------------------------------------------||
G||-------5----7---14-----------------------------------||
D||--2----x----x---x-------------------------------------||
A||--2----3----5---12-----------------------------------||
E|--0---------------------------------------------------|/


[VERSE 2]
Guitar 1 plays the same 8 times

Guitar 2 distorted comes in the 5th times
5th time
e/|------------12----------------------------------------|
B||---------------------12-------------------------------|
G||------------------------------12----------------------|
D||------------------------------------------------------|
A||------------------------------------------------------|
E|------------------------------------------------------|

6th time
e/|-----------12-----------------15----------------------|
B||---------------------12-------------------------------|
G||------------------------------------------------------|
D||------------------------------------------------------|
A||------------------------------------------------------|
E|------------------------------------------------------|

7th and 8th time
** ** ** ** The last time
e/|------------------------------------|----------------|
B||------------------------------------|----------------|
G||-----------5---------7--------------|----------------|
D||--2--------5---------7--------7-----|--7-7-7---------|
A||--2--------3---------5--------7-----|--7-7-7---------|
E|--0---------------------------5-----|--5-5-5---------|

[CHORUS]

E5/Em C5/C
You don't know me, don't ignore me

D5/D A5/A E5/Em C5/C D5/D A5/A
You don't want me there you just shut me out

E5/Em C5/C
You don't know me, don't ignore me

D5/D A5/A E5/Em C5/C
If you had your way you'd just shut me out

D5/D C5/C E5/Em C5/C D5/D A/C#/Am
Make me go away, make me go away


[BRIDGE]

E5 C5 D5 A/C# E5 C5 D5 A/C#
I tried to belong it didn't seem wrong, my head aches
E5 C5 D5 A/C# E5 C5 D5
It's been so long I'll write this song, if that's what it takes

D5 D5 D5


Get this song at amazon.com      Ebay     Ringtones Ringtones  


Learn to play: Songwriting, Piano, Harmonica, Guitar
More Avril Lavigne lyrics available at Muzikum

Related Avril Lavigne Tabs

Nobodys Fool tabs
Innocence Bass tabs
Things Ill Never Say tabs
O Holy Night Chords tabs
I'm With You (live) tabs
Im With You Live tabs
He Wasnt Live tabs
Mobile Solo tabs
Mobile Acoustic tabs
Who Knows Intro tabs
Fuel tabs
My World2 tabs
Together tabs
Take Me Away Live tabs
Anything But Ordinary tabs
Unwanted tabs
What The Hell tabs
Sk8er Boi Acoustic tabs
Complicated. tabs
Nobody's Fool (acoustic) tabs


Guitar Tabs









All tabs are property and copyright of their owners. All tabs provided for educational purposes only. Privacy Policy, DMCA