Avril Lavigne

Things I Will Never Say Tabs



More from Avril Lavigne

Avril Lavigne Tabs
Avril Lavigne Chords
Avril Lavigne Bass
Avril Lavigne Lyrics

Bm  G  D  Asus2  Em  A  C
e:-2---3--2---0-----0---0--0--------------------------------------------------------
h:-3---3--3---0-----0---2--1--------------------------------------------------------
g:-4---0--2---2-----0---2--0--------------------------------------------------------
d:-4---0--0---2-----2---2--2--------------------------------------------------------
a:-2---x--x---0-----2---0--3--------------------------------------------------------
e:-x---3--x---x-----0---x--x--------------------------------------------------------
D A B G
D A B G
Bm G D
I'm tugging at my hair, I'm pulling at my clothes
Asus2 Bm
I'm trying to keep my cool, I know it shows
Bm G D
I'm staring at my feet, my cheeks are turning red
Asus2 Em
I'm searching for the words inside my head
Em G
I'm feeling nervous, trying to be so perfect
Em Asus2
Cause I know you're worth it, you're worth it, yeah
D A Bm
If I could say what I want to say, I say I want to blow you away
G D
Be with you every night, am I squeezing you too tight
D A Bm
If I can say what I wanna see, I wanna see you go down on one knee
G Em
Marry me today, guess I'm wishing my life away
C
With these things I'll never say
D A B G
e:-10---10--10--9--9--9------------10---
h:----10--10--10-10-10-10-slide-7----10-
g:--------------------------------------
d:--------------------------------------
a:--------------------------------------
e:--------------------------------------
Bm G D
It don't do me any good, it's just a waste of time
Asus2 B
What use is it to you what's on my mind
Bm G D
If it ain't comin out, we're not going anywhere
Asus2 Em
So why can't I just tell you that I care
Em G
Cause I'm feeling nervous, trying to be so perfect
Em Asus2
Cause I know you're worth it, you're worth it, yeah
D A Bm
If I could say what I want to say, I say I want to blow you away
G D
Be with you every night, am I squeezing you too tight
D A Bm
If I can say what I wanna see, I wanna see you go down on one knee
G Em
Marry me today, guess I'm wishing my life away
C Bm
With these things I'll never say
Bm A G
What's wrong with my tongue, these words keep slipping away
Bm A G Em
I stutter I stumble, like I've got nothing to say
Em G
Cause I'm feeling nervous, tryin' to be so perfect
Em A
Cause I know you're worth it, you're worth it, yeah
D A B G
D A B G
G Em
Guess I'm wishin my life away
C D
With these things I'll never say
D A Bm
If I could say what I want to say, I say I want to blow you away
G D
Be with you every night, am I squeezing you too tight
D A Bm
If I can say what I wanna see, I wanna see you go down on one knee
G Em
Marry me today, guess I'm wishing my life away
C
With these things I'll never say
D
These things I'll never say
tabbed by: Marc Schack



Get this song at amazon.com      Ebay     Ringtones Ringtones  


Learn to play: Songwriting, Piano, Harmonica, Guitar
More Avril Lavigne lyrics available at Muzikum

Related Avril Lavigne Tabs

My Happy Ending tabs
Things Ill Never Say tabs
When Youre Gone tabs
Who Knows tabs
Nobodys Home tabs
O Holy Night Chords tabs
Sk8ter Boi2 tabs
Sk8ter Boi tabs
Sk8er Boi3 tabs
Falling Down tabs
Take Me Away tabs
Mobile Acoustic tabs
Not The Only One Bass tabs
I Dont Give tabs
Fall To Pieces tabs
Anything But Ordinary2 tabs
Two Rivers tabs
Sk8a Boi tabs
Together tabs
Mobile tabs


Guitar Tabs









All tabs are property and copyright of their owners. All tabs provided for educational purposes only. Privacy Policy, DMCA