Avril Lavigne

Things I'll Never Say (live) Tabs



More from Avril Lavigne

Avril Lavigne Tabs
Avril Lavigne Chords
Avril Lavigne Bass
Avril Lavigne Lyrics



Artist - Avril Lavigne
Song name – Things I’ll Never Say (Live on Radio One)
Album - Let Go

Tuning – Standard (EADGBE)

Bm - x24432 || Em - 022000
G - 3x0033 || A - x02220
D - xx0232 || C - x32010
Asus2 – x00220 ||

h = hammer on pm = palm mute
/ = slide up x = scratch
= slide down b = bend
~ = vibrato r = release bend


[INTRO] 2x
Guitar 1
****** * ****** * ****** * ****** *
e/|--2--------0--------2--------3------------------------|
B||--3--------2--------3--------3------------------------||
G||--2--------2--------4--------0------------------------||
D||--0--------2--------4--------0------------------------||
A||-----------0--------2--------x------------------------||
E|--------------------x--------3------------------------|/
| |
| Guitar 2 comes in the second time |
| |
e/|------------------------------------------------------|
B||------------------------------------------------------||
G||--7-----------------4---------------------------------||
D||--x--------7--------x--------5~~----------------------||
A||--5--------x--------2--------x------------------------||
E|-----------5-----------------3~~----------------------|/


[VERSE 1] 2x
Guitar 1
** * * ** * * ** * * ** * *
e/|--2--------3--------2--------0------------------------|
B||--3--------3--------3--------2------------------------||
G||--4--------0--------2--------2------------------------||
D||--4--------0--------0--------2------------------------||
A||--2--------x-----------------0------------------------||
E|--x--------3------------------------------------------|/
| |
| Guitar 2 comes in the second time |
| |
e/|------------------------------------------------------|
B||------------------------------------------------------||
G||---4----------------7---------------------------------||
D||--4----------5-------7-------7------------------------||
A||-2----------5---------5-------7-----------------------||
E|-----------3-------------------5----------------------|/


[PRE CHORUS]
Guitar 1
** * * ** * * ** * *
e/|--0--------3--------0--------0------------------------|
B||--0--------3--------0--------0------------------------||
G||--0--------0--------0--------2------------------------||
D||--2--------0--------2--------2------------------------||
A||--2--------x--------2--------0------------------------||
E|--0--------3--------0--------x------------------------|/
| |
| Guitar 2 |
| |
e/|------------------------------------------------------|
B||------------------------------------------------------||
G||------------------------------------------------------||
D||--2--------5--------2--------5~~----------------------||
A||--2--------x--------2--------x------------------------||
E|--x--------3--------x--------3~~----------------------|/


[CHORUS]
Guitar 1
****** * ****** * ****** * ****** *
e/|--2--------0--------2--------3------------------------|
B||--3--------2--------3--------3------------------------||
G||--2--------2--------4--------0------------------------||
D||--0--------2--------4--------0------------------------||
A||-----------0--------2--------x------------------------||
E|--------------------x--------3------------------------|/
| |
| Guitar 2 |
| |
e/|------------------------------------------------------|
B||------------------------------------------------------||
G||--7-----------------4---4-----------------------------||
D||-----------7-----------2-----5---5-7------------------||
A||---5-----------------2----------5---------------------||
E|------------5-----------------3-----------------------|/

Ends like this

Guitar 1
****** *
e/|--0---------0-----------------------------------------|
B||--0---------1-----------------------------------------||
G||--0---------0-----------------------------------------||
D||--2---------2-----------------------------------------||
A||--2---------3-----------------------------------------||
E|--0---------x-----------------------------------------|/
| |
| Guitar 2 |
| |
e/|------------------------------------------------------|
B||------------------------------------------------------||
G||--9----5~---------------------------------------------||
D||------------------------------------------------------||
A||------------------------------------------------------||
E|------------------------------------------------------|/


[Fill]
Guitar 1 plays the chorus again
Guitar 2
e/|--10----10----10----9----9----9-----------------------|
B||-----10----10----10---10---10---10—-------------------|
G||------------------------------------------------------|
D||------------------------------------------------------|
A||------------------------------------------------------|
E|------------------------------------------------------|

e/|------------------------------------------------------|
B||--b8r--b7r--p8-7-7-7-7-7-b7r--b6-b6-5--5-7------------||
G||------------------------------------------5-7---------||
D||---------------------------------------------5~~~-----||
A||------------------------------------------------------||
E|------------------------------------------------------|/


[VERSE 2]
Guitar 1
** * * ** * * ** * * ** * *
e/|--2--------3--------2--------0------------------------|
B||--3--------3--------3--------2------------------------|
G||--4--------0--------2--------2------------------------|
D||--4--------0--------0--------2------------------------|
A||--2--------x-----------------0------------------------|
E|--x--------3------------------------------------------|
| |
| Guitar 2 |
| |
e/|------------------------------------------------------|
B||------------------------------------------------------|
G||----------------------7-------------------------------|
D||---------------------7-------7------------------------|
A||--------------------5---------7-----------------------|
E|-------------------------------5----------------------|

Guitar 1
** * * ** * * ** * * ** * *
e/|--2--------3--------2--------0------------------------|
B||--3--------3--------3--------2------------------------||
G||--4--------0--------2--------2------------------------||
D||--4--------0--------0--------2------------------------||
A||--2--------x-----------------0------------------------||
E|--x--------3------------------------------------------|/
| |
| Guitar 2 |
| |
e/|------------------------------------------------------|
B||------------------------------------------------------||
G||----4---------------7---------------------------------||
D||---4-------5---------7-------7------------------------||
A||--2---------5-----------------7-----------------------||
E|-------------3-----------------5----------------------|/


[PRE CHORUS]
Guitar 1
** * * ** * * ** * *
e/|--0--------3--------0--------0------------------------|
B||--0--------3--------0--------0------------------------||
G||--0--------0--------0--------2------------------------||
D||--2--------0--------2--------2------------------------||
A||--2--------x--------2--------0------------------------||
E|--0--------3--------0--------x------------------------|/
| |
| Guitar 2 |
| |
e/|------------------------------------------------------|
B||------------------------------------------------------||
G||------------------------------------------------------||
D||--2--------5--------2--------5~~----------------------||
A||--2--------x--------2--------x------------------------||
E|--x--------3--------x--------3~~----------------------|/


[CHORUS]

Same as before, but ends like this

Guitar 1
****** *
e/|--0---------0-----------------------------------------|
B||--0---------1-----------------------------------------||
G||--0---------0-----------------------------------------||
D||--2---------2-----------------------------------------||
A||--2---------3-----------------------------------------||
E|--0---------x-----------------------------------------|/
| |
| Guitar 2 |
| |
e/|------------------------------------------------------|
B||------------------------------------------------------||
G||--9-7---9---5~----------------------------------------||
D||-----9------------------------------------------------||
A||------------------------------------------------------||
E|------------------------------------------------------|/


[BRIDGE]
Guitar 1
** ** ** **
e/|--2--------0--------3-----------3---------------------|
B||--3--------2--------3-----------3---------------------|
G||--4--------2--------0-----------0---------------------|
D||--4--------2--------0-----------0---------------------|
A||--2--------0--------x-----------x---------------------|
E|--x--------x--------3-----------3---------------------|
| |
| Guitar 2 |
| |
e/|------------------------------------------------------|
B||------------------------------------------------------|
G||--4~----------------------------4---------------------|
D||-----------7~-------b5r-b5r-b5r---7--5-7-5------------|
A||-------------------------------5----------------------|
E|------------------------------------------------------|

Guitar 1
** ** **
e/|--2--------0--------3-----------0---------------------|
B||--3--------2--------3-----------0---------------------||
G||--4--------2--------0-----------0---------------------||
D||--4--------2--------0-----------2---------------------||
A||--2--------0--------x-----------2---------------------||
E|--x--------x--------3-----------0---------------------|/
| |
| Guitar 2 |
| |
e/|------------------------------------------------------|
B||------------------------------------------------------||
G||--4~----------------------------4---------------------||
D||--4~-------7~-------b5r-b5r-b5r5--7--5-7-5------------||
A||-------------------------------5----------------------||
E|------------------------------------------------------|/


[INTERLUDE]
Guitar 1
** ** pm...
e/|--0--------3--------0-------------------0000000-------|
B||--0--------3--------0-------------------2222222-------||
G||--0--------0--------0-------------------2222222-------||
D||--2--------0--------2-------------------2222222-------||
A||--2--------x--------2-------------------0000000-------||
E|--0--------3--------0---------------------------------|/
| |
| Guitar 2 |
| pm............ |
e/|--10~~~~~-----------10--------------------------------|
B||-----------8/7~~------10------------------------------||
G||-------------------------9----------------------------||
D||------------------------------77777777777777777/------||
A||------------------------------77777777777777777/------||
E|------------------------------55555555555555555/------|/


[CHORUS] (la da da da da.....)

Guitar 1
****** * ****** * ****** * ****** *
e/|--2--------0--------2--------3------------------------|
B||--3--------2--------3--------3------------------------||
G||--2--------2--------4--------0------------------------||
D||--0--------2--------4--------0------------------------||
A||-----------0--------2--------x------------------------||
E|--------------------x--------3------------------------|/
| |
| Guitar 2 |
| |
e/|------------------------------------------------------|
B||------------------------------------------------------||
G||--7-----------------4---4-----------------------------||
D||-----------7-----------2-----5---5-7------------------||
A||---5-----------------2----------5---------------------||
E|------------5-----------------3-----------------------|/

Ends like this

Guitar 1
****** *
e/|--0---------0-----------------------------------------|
B||--0---------1-----------------------------------------||
G||--0---------0-----------------------------------------||
D||--2---------2-----------------------------------------||
A||--2---------3-----------------------------------------||
E|--0---------x-----------------------------------------|/
| |
| Guitar 2 |
| |
e/|------------------------------------------------------|
B||------------------------------------------------------||
G||--b9-b11-b9-5~~~~~-----------------------------------||
D||------------------------------------------------------||
A||------------------------------------------------------||
E|------------------------------------------------------|/


Then Chorus again, and Guitar 2 ends like this

Guitar 2

e/|--0--------------x------------------------------------|
B||--0-----0--------1------------------------------------||
G||--0------0-------0------------------------------------||
D||--2--2------2----2------------------------------------||
A||--2--2-----------3------------------------------------||
E|--0--0-----------x------------------------------------|/


Get this song at amazon.com      Ebay     Ringtones Ringtones  


Learn to play: Songwriting, Piano, Harmonica, Guitar
More Avril Lavigne lyrics available at Muzikum

Related Avril Lavigne Tabs

I Can Do Better tabs
Unwanted (live) tabs
Keep Holding On tabs
Nobody's Fool tabs
I’m With You tabs
Slipped Away tabs
Complicated tabs
I Dont Have To Try tabs
Naked (live) tabs
Unwanted tabs
I'm With You tabs
My World2 tabs
Knocking On Heaven's Door tabs
He Wasnt Acoustic tabs
How Does It Feel tabs
Sk8er Boi4 tabs
Girlfriend Bass tabs
Alone tabs
Things I'll Never Say (live) tabs
Losing Grip tabs


Guitar Tabs









All tabs are property and copyright of their owners. All tabs provided for educational purposes only. Privacy Policy, DMCA