Avril Lavigne

Things I'll Never Say (live Radio) Tabs



More from Avril Lavigne

Avril Lavigne Tabs
Avril Lavigne Chords
Avril Lavigne Bass
Avril Lavigne Lyrics



Tab:
Avril Lavigne – Things I’ll Never Say (Live on Radio One)
~~~~~~~~~~~~~~~~~~~~~~~~~~~~~~~~~~~~~~~~~~~~~~~~~~~~~~~~
Tabbed by Navid – Navidglm@hotmail.com

Tuning - Standard (EADGBE)

Bm - x24432 || Em - 022000
G - 3x0033 || A - x02220
D - xx0232 || C - x32010
Asus2 – x00220 ||

pm = Palm mute
h = hammer on () = ghost note
/ = slide up x = scratch
= slide down ^ = bend
~ = vibrato r = release bend


[INTRO]
Guitar 1
****** * ****** * ****** * ****** *
e/|--2--------0--------2--------3------------------------|
B||--3--------2--------3--------3------------------------||
G||--2--------2--------4--------0------------------------||
D||--0--------2--------4--------0------------------------||
A||-----------0--------2--------x------------------------||
E|--------------------x--------3------------------------|/
| |
| Guitar 2 distorted comes in the second time |
| |
e/|------------------------------------------------------|
B||------------------------------------------------------||
G||--7--------6--------7---------------------------------||
D||-----------------------------5/9----------------------||
A||--5--------4--------5---------------------------------||
E|-----------------------------3/7----------------------|/


[VERSE 1]
Guitar 1
** * * ** * * ** * * ** * *
e/|--2--------3--------2--------0------------------------|
B||--3--------3--------3--------2------------------------||
G||--4--------0--------2--------2------------------------||
D||--4--------0--------0--------2------------------------||
A||--2--------x-----------------0------------------------||
E|--x--------3------------------------------------------|/
| |
| Guitar 2 distorted comes in the second time |
| |
e/|------------------------------------------------------|
B||----5~~~-----7~~~---6--------4------------------------||
G||---6--------8--------7--------5-----------------------||
D||--7--------9----------8--------6----------------------||
A||------------------------------------------------------||
E|------------------------------------------------------|/



[PRE CHORUS]
Guitar 1
** * * ** * * ** * *
e/|--0--------3--------0--------0------------------------|
B||--0--------3--------0--------0------------------------||
G||--0--------0--------0--------2------------------------||
D||--2--------0--------2--------2------------------------||
A||--2--------x--------2--------0------------------------||
E|--0--------3--------0--------x------------------------|/
| |
| Guitar 2 distorted |
| |
e/|------------------------------------------------------|
B||------------------------------------------------------||
G||------------------------------------------------------||
D||--2--------5--------2--------5/9----------------------||
A||--2--------5--------2---------------------------------||
E|--0--------3--------0--------3/7----------------------|/


[CHORUS]
Guitar 1
****** * ****** * ****** * ****** * ****** *
e/|--2--------0--------2--------3---------0---------0----|
B||--3--------2--------3--------3---------0---------1----||
G||--2--------2--------4--------0---------0---------0----||
D||--0--------2--------4--------0---------2---------2----||
A||-----------0--------2--------x---------2---------3----||
E|--------------------x--------3---------0---------x----|/
| |
| Guitar 2 distorted |
| |
e/|------------------------------------------------------|
B||---------------------------------------12~-10~--------||
G||--7--------6--------7---------------------------------||
D||-----------------------------5--5-7-------------------||
A||---5--------4--------5--------------------------------||
E|------------------------------3-----------------------|/


[Fill] Guitar 1 plays the chorus again
Guitar 2 distorted
e/|--10----10----10----9----9----9-----------------------|
B||-----10----10----10---10---10---10—-------------------|
G||------------------------------------------------------|
D||------------------------------------------------------|
A||------------------------------------------------------|
E|------------------------------------------------------|

e/|------------------------------------------------------|
B||-8^--r^-7^--8p-7-8p-7-7-7-7^--6-6-5p------------------||
G||--------------------------------------7-9h---7-5~~~~~~||
D||-------------------------------------------9----------||
A||------------------------------------------------------||
E|------------------------------------------------------|/




[VERSE 2]
Guitar 1
** * * ** * * ** * * ** * *
e/|--2--------3--------2--------0------------------------|
B||--3--------3--------3--------2------------------------|
G||--4--------0--------2--------2------------------------|
D||--4--------0--------0--------2------------------------|
A||--2--------x-----------------0------------------------|
E|--x--------3------------------------------------------|
| |
| Guitar 2 distorted |
| |
e/|------------------------------------------------------|
B||----------------------5-(7)--5------------------------|
G||---------------------6--------6-----------------------|
D||--------------------7----------7----------------------|
A||------------------------------------------------------|
E|------------------------------------------------------|

Guitar 1
** * * ** * * ** * * ** * *
e/|--2--------3--------2--------0------------------------|
B||--3--------3--------3--------2------------------------||
G||--4--------0--------2--------2------------------------||
D||--4--------0--------0--------2------------------------||
A||--2--------x-----------------0------------------------||
E|--x--------3------------------------------------------|/
| |
| Guitar 2 distorted |
| |
e/|------------------------------------------------------|
B||----3-(5)--3-----------------5------------------------||
G||---4--------4-------8---------6-----------------------||
D||--5----------5---------9~~~----7----------------------||
A||------------------------------------------------------||
E|------------------------------------------------------|/


[PRE CHORUS]
Guitar 1
** * * ** * * ** * *
e/|--0--------3--------0--------0------------------------|
B||--0--------3--------0--------0------------------------||
G||--0--------0--------0--------2------------------------||
D||--2--------0--------2--------2------------------------||
A||--2--------x--------2--------0------------------------||
E|--0--------3--------0--------x------------------------|/
| |
| Guitar 2 distorted |
| |
e/|------------------------------------------------------|
B||------------------------------------------------------||
G||------------------------------------------------------||
D||--2--------5--------2--------5/9----------------------||
A||--2--------5--------2---------------------------------||
E|--0--------3--------0--------3/7----------------------|/



[CHORUS]
Guitar 1
****** * ****** * ****** * ****** * ****** *
e/|--2--------0--------2--------3---------0---------0----|
B||--3--------2--------3--------3---------0---------1----||
G||--2--------2--------4--------0---------0---------0----||
D||--0--------2--------4--------0---------2---------2----||
A||-----------0--------2--------x---------2---------3----||
E|--------------------x--------3---------0---------x----|/
| |
| Guitar 2 distorted |
| |
e/|------------------------------------------------------|
B||---------------------------------------12----12—10^---||
G||--7--------6--------7--------------------12-10--------||
D||-----------------------------5--5-7-------------------||
A||---5--------4--------5--------------------------------||
E|------------------------------3-----------------------|/


[BRIDGE]
Guitar 1
** ** **
e/|--2--------0--------3---------------------------------|
B||--3--------2--------3---------------------------------|
G||--4--------2--------0---------------------------------|
D||--4--------2--------0---------------------------------|
A||--2--------0--------x---------------------------------|
E|--x--------x--------3---------------------------------|
| |
| Guitar 2 distorted |
| |
e/|------------------------------------------------------|
B||--5~~~-----------------3^3^3^2p-----------------------|
G||-----------7~~~~----5------------9---7/-5p------------|
D||------------------------------------------------------|
A||------------------------------------------------------|
E|------------------------------------------------------|

Guitar 1
** ** **
e/|--2--------0--------3--------0------------------------|
B||--3--------2--------3--------0------------------------||
G||--4--------2--------0--------0------------------------||
D||--4--------2--------0--------2------------------------||
A||--2--------0--------x--------2------------------------||
E|--x--------x--------3--------0------------------------|/
| |
| Guitar 2 distorted |
| |
e/|------------------------------------------------------|
B||--7~~~~-------------5--7^~5x--------------------------||
G||-----------9~~~~----------5x-9---7/--5p---------------||
D||------------------------------------------------------||
A||------------------------------------------------------||
E|------------------------------------------------------|/



[INTERLUDE]
Guitar 1
** **
e/|--0--------3--------0---------------------------------|
B||--0--------3--------0---------------------------------||
G||--0--------0--------0---------------------------------||
D||--2--------0--------2---------------------------------||
A||--2--------x--------2---------------------------------||
E|--0--------3--------0---------------------------------|/
| |
| Guitar 2 distorted |
| pm.............. |
e/|--10~~~~~-----------10--------------------------------|
B||-----------8/7~~------10------------------------------||
G||-------------------------9----666666666666666/--------||
D||------------------------------666666666666666/--------||
A||------------------------------444444444444444/--------||
E|------------------------------------------------------|/


[CHORUS] (la da da da da.....)
Guitar 1
****** * ****** * ****** * ****** * ****** *
e/|--2--------0--------2--------3---------0---------0----|
B||--3--------2--------3--------3---------0---------1----||
G||--2--------2--------4--------0---------0---------0----||
D||--0--------2--------4--------0---------2---------2----||
A||-----------0--------2--------x---------2---------3----||
E|--------------------x--------3---------0---------x----|/
| |
| Guitar 2 distorted |
| |
e/|------------------------------------------------------|
B||---------------------------------------12~-10~-7^7~~-||
G||--7--------6--------7---------------------------------||
D||-----------------------------5--5-7-------------------||
A||---5--------4--------5--------------------------------||
E|------------------------------3-----------------------|/


Then Chorus again, and Guitar 2 ends like this

Guitar 2 distorted

e/|-----------------x------------------------------------|
B||-----------------1------------------------------------||
G||-----------------0---0--------------------------------||
D||--2-----------2--2------------------------------------||
A||-----------3-----3------------------------------------||
E|----0------------x------------------------------------|/


Get this song at amazon.com      Ebay     Ringtones Ringtones  


Learn to play: Songwriting, Piano, Harmonica, Guitar
More Avril Lavigne lyrics available at Muzikum

Related Avril Lavigne Tabs

He Wasnt tabs
Mobile Solo tabs
Complicated Live tabs
Nobody's Fool (acoustic) tabs
Skater Boi tabs
My Happy Ending Acoustic tabs
Nobodys Fool tabs
Anything But Ordinary tabs
Naked (chords) tabs
Sk8er Boi3 tabs
Im With You Intro tabs
Innocence Bass tabs
Anything But Ordinary2 tabs
Why tabs
Sk8ter Boi tabs
Best Damn Thing tabs
Two Rivers tabs
Mobile Acoustic tabs
Alone tabs
Headset Bass tabs


Guitar Tabs









All tabs are property and copyright of their owners. All tabs provided for educational purposes only. Privacy Policy, DMCA