Avril Lavigne

Take Me Away Tabs



More from Avril Lavigne

Avril Lavigne Tabs
Avril Lavigne Chords
Avril Lavigne Bass
Avril Lavigne Lyrics

Avril Lavigne - Take Me Away
Music by: Evan Taubenfeld, Avril Lavigne
Album: Under My Skin (2004)
Live performed by:
Devin Bronson (Lead guitar) & Craig Wood (Rythm guitar)
Avril Lavigne (Rythm guitar)
Charlie Moniz (Bass)
Matt Brann (Drums)
Tabbed by riki (www.igiavril.tk)
Tuning: Standard E
INTRO:
Rythm guitar (2x)intro & (2x)verse
Em D Am C D
e|----------------------------|---------------------------|
B|----------------------------|---------------------------|
G|--------0----0--------------|--------0----0----0--------|
D|---------------------4----4-|-----2-----2------------4--|
A|-----2-----2---0--0-----0---|--0------------3-----0-----|
E|--0-------------------------|---------------------------|
Lead guitar (intro)
e|--12~~------------------|-----------------------|
B|--------12--10~~--------|------10--12-----------|
G|------------------------|--------------9-------|
D|------------------------|-----------------------|
A|------------------------|-----------------------|
E|------------------------|-----------------------|
VERSE 1 :
Rythm guitar (continuing from above)
pm ... pm ...
e|--------------------------|-------------------------|
B|--------------3--3--3--3--|--1--1--1--1----------3--|
G|--------------2--2--2--2--|--2--2--2--2--0--0-2--2--|
D|--2--2--2--2--0--0--0--0--|--2--2--2--2--2--2-0--0--|
A|--2--2--2--2--0--0--0--0--|--0--0--0--0--3--3-------|
E|--0--0--0--0--------------|-------------------------|
pm ... pm ...
e|--------------------------|-------------------------|
B|--------------3--3--3--3--|--1--1--1--1--1--1-1--1--|
G|--------------2--2--2--2--|--2--2--2--2--2--2-2--2--|
D|--2--2--2--2--0--0--0--0--|--2--2--2--2--2--2-0--0--|
A|--2--2--2--2--0--0--0--0--|--0--0--0--0--0--0-0--0--|
E|--0--0--0--0--------------|-------------------------|
pm ... slide
e|---------------------------|
B|--------------1--1-1--1-\-|
G|--0--0--0--0--0--0-0--0-\-|
D|--2--2--2--2--2--2-2--2-\-|
A|--3--3--3--3--3--3------\-|
E|---------------------------|
Em D Am C D
I cannot find a way to describe it
It's there inside; all I do is hide
I wish that it would just go away
Em D Am
What would you do, you do, if you knew
C
What would you do
CHORUS :
Lead guitar:
(2x) E5 C5 D5
e|-------------------|-------------------|-------------------|
B|-------------------|-------------------|-------------------|
G|--9-9---9--9-------|--5-5---5--5-------|--7-7---7--7~~~~~~-|
D|--9-9---9--9-------|--5-5---5--5-------|--7-7---7--7~~~~~~-|
A|--7-7---7--7-------|--3-3---3--3-------|--5-5---5--5~~~~~~-|
E|-------------------|-------------------|-------------------|
(2x) (last time just let D5 ring)
e|-----------------|-----------------|-----------------|
B|-----------------|-----------------|-----------------|
G|-9-9-9-9-9-9-9-9-|-5-5-5-5-5-5-5-5-|-7-7-7-7-7-7-7-7-|
D|-9-9-9-9-9-9-9-9-|-5-5-5-5-5-5-5-5-|-7-7-7-7-7-7-7-7-|
A|-7-7-7-7-7-7-7-7-|-3-3-3-3-3-3-3-3-|-5-5-5-5-5-5-5-5-|
E|-----------------|-----------------|-----------------|
Rythm guitar:
Em C
All the pain I thought I knew
D
All my thoughts lead back to you
Em C
Back to what was never said
D A
Back and forth inside my head
Em C D
I can't handle this confusion
Em C D
I'm unable; come and take me away
BRIDGE 1 :
Rythm guitar (1x)bridge & (2x)verse2
Em D Am C D
e|----------------------------|---------------------------|
B|----------------------------|---------------------------|
G|--------0----0--------------|--------0----0----0--------|
D|---------------------4----4-|-----2-----2------------4--|
A|-----2-----2---0--0-----0---|--0------------3-----0-----|
E|--0-------------------------|---------------------------|
Lead guitar (bridge1)
e|--12~~------------------|--------------------------------------|
B|--------12--10~~--------|--12~---12b14-14r12p10h12p10----------|
G|------------------------|------------------------------12--9~~-|
D|------------------------|--------------------------------------|
A|------------------------|--------------------------------------|
E|------------------------|--------------------------------------|
VERSE 2 :
(Same as verse1)
Em D Am C D
I feel like I am all alone
All by myself I need to get around this
My words are cold, I don't want them to hurt you
Em D Am
If I show you, I don't think you'd understand
C
Cause no one understands
CHORUS :
(same as before)
BRIDGE 2 :
Rythm guitar: C Em C D
(let ring)
e|-----0---------0-----|-----0----------0-----|-----0---------0-----|--2~~--------------|
B|-------1---------1---|-------0----------0---|-------1---------1---|--3~~--------------|
G|---------0---------0-|---------0----------0-|---------0---------0-|--2~~--------------|
D|-----------2---------|-----------2----------|-----------2---------|--0~~--------------|
A|--3------------------|--2-------------------|--3------------------|-------------------|
E|---------------------|----------------------|---------------------|-------------------|
C
I'm going nowhere (on and on and)
Em
I'm getting nowhere (on and on and on)
Take me away
C D
I'm going nowhere (on and off and off and on)
(and off and on)
CHORUS :
(same as before)
OUTRO :
Rythm guitar: Em C D
Take me away
Take me away
Take me away
Take me away (Em...)
Lead guitar: (last, let ring...)
e|-----------------|-----------------|-----------------|...|----------|
B|-----------------|-----------------|-----------------|...|-0~~------|
G|-9-9-9-9-9-9-9-9-|-5-5-5-5-5-5-5-5-|-7-7-7-7-7-7-7-7-|...|-0~~------|
D|-9-9-9-9-9-9-9-9-|-5-5-5-5-5-5-5-5-|-7-7-7-7-7-7-7-7-|...|-2~~------|
A|-7-7-7-7-7-7-7-7-|-3-3-3-3-3-3-3-3-|-5-5-5-5-5-5-5-5-|...|-2~~------|
E|-----------------|-----------------|-----------------|...|----------|
(last 2x)
e|--0-5-0-7-0-5-0-7-10-0-|-0-12-12-12h15h17p15p12-12h15h17p15p12-|--12h15p12-----------15------12~~~~--|
B|-----------------------|---------------------------------------|-----------15-15b17~~~~~r15-----b15~-|
G|-----------------------|---------------------------------------|-------------------------------------|
D|-----------------------|---------------------------------------|-------------------------------------|
A|-----------------------|---------------------------------------|-------------------------------------|
E|-----------------------|---------------------------------------|-------------------------------------|



Get this song at amazon.com      Ebay     Ringtones Ringtones  


Learn to play: Songwriting, Piano, Harmonica, Guitar
Also available at Muzikum: Avril Lavigne - Take me away lyrics

Related Avril Lavigne Tabs

Let Go Words tabs
Nobody's Fool tabs
Runaway tabs
Alone tabs
Sk8ter Boi2 tabs
Mobile Solo tabs
Together tabs
Sk8er Boi Acoustic tabs
He Wasnt Live tabs
Knockin On Heavens Door tabs
Forgotten tabs
Everything Back But You tabs
Girlfriend Bass tabs
Sk8er Boi4 tabs
Dont Tell Me tabs
Tomorrow tabs
Sk8er Boi2 tabs
My World2 tabs
Something Isnt Right tabs
Temple Of Life tabs


Guitar Tabs









All tabs are property and copyright of their owners. All tabs provided for educational purposes only. Privacy Policy, DMCA