Avril Lavigne

Take Me Away Live Tabs



More from Avril Lavigne

Avril Lavigne Tabs
Avril Lavigne Chords
Avril Lavigne Bass
Avril Lavigne Lyrics

Avril LAvigne
Take Me Away (Live)
Under My Skin Special Edition
2005
tabbed by n2sed_182@yahoo.com

There are 3 guitarists in the band
Herself Avril the rhythm one, Devin Brunson the lead one and Craig Wood the another
rhthythm. Devin is the one who replaced Evan Taubenfield after evan went back to his
original band SPINFIRE in Maryland. Devin is the ex guitarist in KELLY CLARKSON's band
for your information.

In the UNDER MY SKIN special edition It included 2 cds, there are 12 original tracks
plus 4 bonus live tracks such as this one TAKE ME AWAY, NOBODY'S HOME, HE WASN'T and
TOMORROW. In Disc 2, you will watched ver super vivid music videos plus 2 never seen
footage videos.


Avril's band this present

Avril herself- Lead Vocals, Electric/Acoustic Guitar, Piano, Drums
Craig wood- Backup vocals, Rhythm Guitar, Sometimes Lead
Devin Brunson- Lead guitar, Backup vocals
Charlie Moniz- Bass
Matt Brann- Drums


Tuning: Drop D all guitars DADGBe

pm- palm mute
h- hammer
~- hold
p- pull off
/- slide
- slide back
br- break, (break) for Avril


Avril Chords:

Em- 222000
Dsus2- xx0230
Asus2- x02200
CM7- x32000
C5- x355xx
D5- 0577xx
A5- 777xxx
G5- 555xxx

Craig Chords: same as Avril's and frequently does the plucking intro.
Devin: He only did riffs, harmonics and distortions.
Sequence is always Avril-->Craig-->Devin except in Bridge part.

then the song starts here xoxo

Intro:

Avril (nothing to do in the intro)


Craig (plucking to be entered at 0:04)
e|------------------------------------|
B|------------------------------------|
G|-----0--0-------------0--0----------| (x2)
D|-------------4--4---2--------2---4--|
A|---2-------0------0--------3--------|
D|-2-------0---------------------0----|


Devin (to enter the riffs at 0:09)
e|-12~--------------------------------|
B|-----12-10~------10-12--------------|
G|-----------------------9~-----------|
D|------------------------------------|
A|------------------------------------|
D|------------------------------------|


Verse 1 Part 1:


Avril (slightly strums):
Em Dsus2 Asus2 CM7 Dsus2
I can not find a way to describe it


Craig
e|------------------------------------|
B|------------------------------------|
G|-----0--0-------------0--0----------|
D|-------------4--4---2--------2---4--|
A|---2-------0------0--------3--------|
D|-2-------0---------------------0----|


Devin
e|------------------------------------|
B|------------------------------------|
G|-9~---------------9~----------------|
D|------------------------------------|
A|------------------------------------|
D|------------------------------------|


Avril
Em Dsus2 Asus2 CM7 Dsus2
It's there inside all I do is hide


Craig
e|------------------------------------|
B|------------------------------------|
G|-----0--0-------------0--0----------|
D|-------------4--4---2--------2---4--|
A|---2-------0------0--------3--------|
D|-2-------0---------------------0----|


Devin
e|------------------------------------|
B|------------------------------------|
G|-9~---------------9~----------------|
D|------------------------------------|
A|------------------------------------|
D|------------------------------------|


Verse 1 Part 2:

Avril (strums harder with palm mute involved)
pm(x2) Em pm(x3) D5 pm A5 pm A5 pm C5 pm D5 pm
I wish that it would just go away


Craig (same as Avril did)
e|------------------------------------------|
B|------------------------------------------|
G|----------pm(x3)-7-----------pm-5-pm-7----|
D|-pm(x2)-2-pm(x3)-7-pm-7-pm-7-pm-5-pm-7-pm-|
A|-pm(x2)-2-pm(x3)-5-pm-7-pm-7-pm-3-pm-5-pm-|
D|-pm(x2)-2--------0-pm-7-pm-7---------0-pm-|


Avril
pm(x2) Em pm(x3) D5 pm A5 pm A5 pm C5 pm D5 pm
What would you do You do if you knew


Craig
e|------------------------------------------|
B|------------------------------------------|
G|----------pm(x3)-7-----------pm-5-pm-7----|
D|-pm(x2)-2-pm(x3)-7-pm-7-pm-7-pm-5-pm-7-pm-|
A|-pm(x2)-2-pm(x3)-5-pm-7-pm-7-pm-3-pm-5-pm-|
D|-pm(x2)-2--------0-pm-7-pm-7---------0-pm-|


Avril
C5
What would you do


Craig
e|-----------------------------------------|
B|-----------------------------------------|
G|-5(x13)----------------------------------|
D|-5(x13)---------------------pm(x4)-------|
A|-3(x13)---------------------pm(x4)-------|
D|----------------------------pm(x4)-------|


Devin
e|--------|
B|--------|
G|-9~-----|
D|--------|
A|--------|
D|--------|


Chorus:


Avril (strums very hard while singing with angst passionately)
Em
And all the pain


Craig
e|-------------------|
B|-------------------|
G|-------------pm----|
D|-2(x2)-------pm----|
A|-2(x2)-------pm----|
D|-2(x2)-------------|


Devin
e|--------|
B|--------|
G|--------|
D|--------|
A|--------|
D|-2(x2)--


Avril
C5
I thought I knew


Craig
e|-------------------|
B|-------------------|
G|-5(x2)-------pm----|
D|-5(x2)-------pm----|
A|-3(x2)-------pm----|
D|-------------------|


Devin
e|-----------|
B|-----------|
G|-----------|
D|-------5~--|
A|-3(x2)-----|
D|-----------|


Avril
D5
All the thoughts lead back to you


Craig
e|-------------------|
B|-------------------|
G|-7(x5)-------------|
D|-7(x5)-------pm----|
A|-5(x5)-------pm----|
D|-0(x5)-------pm----|

Avril
Em
Back to what


Craig
e|-------------------|
B|-------------------|
G|-------------pm----|
D|-2(x2)-------pm----|
A|-2(x2)-------pm----|
D|-2(x2)-------------|


Avril
C5
Was never said


Craig
e|-------------------|
B|-------------------|
G|-5(x2)-------pm----|
D|-5(x2)-------pm----|
A|-3(x2)-------pm----|
D|-------------------|


Avril
D5
Back and forth inside my head


Craig
e|-------------------|
B|-------------------|
G|-7(x5)-------------|
D|-7(x5)-------pm----|
A|-5(x5)-------pm----|
D|-0(x5)-------pm----|


Devin
e|-----------|
B|-----------|
G|-----------|
D|-----------|
A|-----------|
D|-0~--------|


Avril
Em C5 D5
I can't handle this confusion


Craig
e|-------------------|
B|-------------------|
G|-------5(x4)-7(x8)-|
D|-2(x4)-5(x4)-7(x8)-|
A|-2(x4)-3(x4)-5(x8)-|
D|-2(x4)-------0(x8)-|


Devin
e|--------|
B|--------|
G|-9~-----|
D|--------|
A|--------|
D|--------|


Avril
Em C5 D5(break)
I'm unable come and take me away


Craig
e|----------------------|
B|----------------------|
G|-------5(x4)-7(x3)-br-|
D|-2(x4)-5(x4)-7(x3)-br-|
A|-2(x4)-3(x4)-5(x3)-br-|
D|-2(x4)-------0(x3)-br-|


Post Chorus: (Just like intro but Devin did it slightly different)


Craig (plucking again to be entered at 0:57)
e|------------------------------------|
B|------------------------------------|
G|-----0--0-------------0--0----------|
D|-------------4--4---2--------2---4--|
A|---2-------0------0--------3--------|
D|-2-------0---------------------0----|


Devin (to enter the riffs at same time)
e|-12~-------------------------------------------|
B|-----12-10~------------------------------------|
G|-----------------9-9h11/12p11-----12p11----9---|
D|------------------------------h12-------12-----|
A|-----------------------------------------------|
D|-----------------------------------------------|

Verse 2 Part 1:

Avril (strums softer again)
Em Dsus2 Asus2 CM7 Dsus2
I feel like I'm all alone


Craig
e|------------------------------------|
B|------------------------------------|
G|-----0--0-------------0--0----------|
D|-------------4--4---2--------2---4--|
A|---2-------0------0--------3--------|
D|-2-------0---------------------0----|


Avril
Em Dsus2 Asus2 CM7 Dsus2
All by myself I need to get around this


Craig
e|------------------------------------|
B|------------------------------------|
G|-----0--0-------------0--0----------|
D|-------------4--4---2--------2---4--|
A|---2-------0------0--------3--------|
D|-2-------0---------------------0----|

Devin
e|-12~-----------|
B|-----12-10~----|
G|---------------|
D|---------------|
A|---------------|
D|---------------|


Verse 2 Part 2:

Avril (strums harder again like in part 1)
pm(x2) Em pm(x3) D5 pm A5 pm A5 pm C5 pm D5 pm
My words are cold I don't want them to hurt you


Craig
e|------------------------------------------|
B|------------------------------------------|
G|----------pm(x3)-7-----------pm-5-pm-7----|
D|-pm(x2)-2-pm(x3)-7-pm-7-pm-7-pm-5-pm-7-pm-|
A|-pm(x2)-2-pm(x3)-5-pm-7-pm-7-pm-3-pm-5-pm-|
D|-pm(x2)-2--------0-pm-7-pm-7---------0-pm-|


Avril
pm(x2) Em pm(x2) D5 pm A5 pm A5 pm C5 pm D5 pm
If I show you I don't think you'd un-der-stand


Craig
e|------------------------------------------|
B|------------------------------------------|
G|----------pm(x3)-7-----------pm-5-pm-7----|
D|-pm(x2)-2-pm(x3)-7-pm-7-pm-7-pm-5-pm-7-pm-|
A|-pm(x2)-2-pm(x3)-5-pm-7-pm-7-pm-3-pm-5-pm-|
D|-pm(x2)-2--------0-pm-7-pm-7---------0-pm-|


Avril
C5
'Cause no one understands


Craig
e|------------------------------------------|
B|------------------------------------------|
G|----------pm(x3)-7-----------pm-5-pm-7----|
D|-pm(x2)-2-pm(x3)-7-pm-7-pm-7-pm-5-pm-7-pm-|
A|-pm(x2)-2-pm(x3)-5-pm-7-pm-7-pm-3-pm-5-pm-|
D|-pm(x2)-2--------0-pm-7-pm-7---------0-pm-|


Devin
e|--------|
B|--------|
G|-9~-----|
D|--------|
A|--------|
D|--------|


(Repeat Chorus except last line)

Avril
Em C5 D5
I'm unable come and take me away


Craig
e|----------------------|
B|----------------------|
G|-------5(x4)-7(x16)---|
D|-2(x4)-5(x4)-7(x16)---|
A|-2(x4)-3(x4)-5(x16)---|
D|-2(x4)-------0(x16)---|


Devin
e|--------|
B|--------|
G|-9~-----|
D|--------|
A|--------|
D|--------|

Bridge: (Avril and Devin only)

Avril
C5
I'm going nowhere on and on and


Devin
e|-3p2p0------7~-|
B|-------3/5~----|
G|---------------|
D|---------------|
A|---------------|
D|---------------|


Avril
Em
I'm getting nowhere on and Take me Away

Craig backups (on and on)


Devin
e|----------------|
B|----------------|
G|----------------|
D|-542p0h2~-----|
A|-5--------------|
D|-2--------------|


Avril
C5 D5
I'm going nowhere on and on and off and on and off and on


Devin
e|-----------------------------------------------|
B|-8~--------------------------------------------|
G|--------------------7~-------9~------11~-------|
D|-----------------------------------------------|
A|-----------------------------------------------|
D|-----------------------------------------------|

(Repeat chorus except last line)


Avril
Em C5 D5 Em C5-D5
I'm unable come and Take me Away


Craig
e|-------------------------------------|
B|-------------------------------------|
G|-------5(x4)-7(x8)-------5(x4)-7(x8)-|
D|-2(x4)-5(x4)-7(x8)-2(x4)-5(x4)-7(x8)-|
A|-2(x4)-3(x4)-5(x8)-2(x4)-3(x4)-5(x8)-|
D|-2(x4)-------0(x8)-2(x4)-------------|


Devin (at time 2:27)
Devin
e|--------------------------|
B|--------------------------|
G|-9(x11)-9/11/121197/9--|
D|--------------------------|
A|--------------------------|
D|--------------------------|

Outro:


Avril
Em C5-D5
Take Me away


Craig
e|--------------------|
B|--------------------|
G|-------5(x4)-7(x8)--|
D|-2(x4)-5(x4)-7(x8)--|
A|-2(x4)-3(x4)-5(x8)--|
D|-2(x4)-------0(x8)--|


Devin
e|--------------------------|
B|--------------------------|
G|-9(x11)-9/11/121197/9--|
D|--------------------------|
A|--------------------------|
D|--------------------------|


Avril
Em C5 D5
Break me awa--a-a-ay


Craig
e|--------------------|
B|--------------------|
G|-------5(x4)-7(x8)--|
D|-2(x4)-5(x4)-7(x8)--|
A|-2(x4)-3(x4)-5(x8)--|
D|-2(x4)-------0(x8)--|


Devin
e|--------------------------|
B|--------------------------|
G|-9(x11)-9/11/121197/9--|
D|--------------------------|
A|--------------------------|
D|--------------------------|


Avril
Em G5-D5
Take me away


Craig
e|------------------------|
B|------------------------|
G|-----------------7(x6)--|
D|-2(x4)-2/4/5(x4)-7(x6)--|
A|-2(x4)-2/4/5(x4)-5(x6)--|
D|-2(x4)-2/4/5(x4)-0(x6)--|


Devin
e|--------------------------|
B|--------------------------|
G|-9(x3)-9/11/12(x4)7~/9~--|
D|--------------------------|
A|--------------------------|
D|--------------------------|


Avril & Craig together
e|------|
B|------|
G|------|
D|-2~---|
A|-2~---|
D|-2~---|


Please Rate!! This is right because I'd listen to the cd carefully and then In Avril's
BONEZ TOUR concerts, I saw them doing this TAB exactly and this is 100% correct for me,
I had a sharp ears.



Get this song at amazon.com      Ebay     Ringtones Ringtones  


Learn to play: Songwriting, Piano, Harmonica, Guitar
301 Moved Permanently

Moved Permanently

The document has moved here.

Related Avril Lavigne Tabs

Nobody's Fool tabs
Things I Will Never Say tabs
Complicated Live tabs
Sk8er Boy tabs
Iím With You tabs
Together tabs
Im With You tabs
Fuel tabs
He Wasnt Live tabs
Two Rivers tabs
Sk8a Boi tabs
He Wasnt tabs
I'm With You (live) tabs
Hot tabs
Slipped Away tabs
Why tabs
Sk8er Boi4 tabs
Who Knows Intro tabs
Let Go Album tabs
Knocking On Heaven's Door tabs


Guitar Tabs




All tabs are property and copyright of their owners. All tabs provided for educational purposes only. Privacy Policy, DMCA