Avril Lavigne

Slipped Away Tabs



More from Avril Lavigne

Avril Lavigne Tabs
Avril Lavigne Chords
Avril Lavigne Bass
Avril Lavigne Lyrics

-----------------------------------------------------------------------------
Slipped Away - Avril Lavigne
-----------------------------------------------------------------------------
Tabbed by: sonofguido
Email: sonofguido@hotmail.com
Tuning: standard
I downloaded this song after hearing it on mtv.com and I really liked it.
So here is my tab for the song. Hope you enjoy.
Chord Key (for acoustic)
C G Em D
e|---0----x----x-----2----|
B|---1----3----x-----3----| x Mute note
G|---0----0----0-----2----| (r) Ring
D|---2----0----2-----0----|
A|---3----2----2-----x----|
E|---x----3----0-----x----|
Chord Key (for Electric w/ Distortion, if you so desire)
C G Em D
e|------------------------|
B|------------------------| x Mute note
G|---5---------------7----| (r) Ring
D|---5----5----2-----7----|
A|---3----5----2-----5----|
E|--------3----0----------|
Intro: **piano transcribed to guitar**
e|------------------------|
B|------------------------| Play about 7x
G|-4----4----4----4-------| Listen to song for rhythme
D|---5----5----4----4-----|
A|-----5----5----5----5---|
E|------------------------|
Na na, Na na na na na.
Verse:
I miss you. I miss you so bad.
I don't forget you. Oh it's so sad
PreChorus:
C G
I hope you can hear me
C G
I remember it clearly
Chorus:
Em C G D
The day you slipped away
Em C
Was the day I found
G D(r)
It won't be the same Ohhhhh....
Verse 2: (Intro Piano Piece Again, can also hear violin)
Na na, Na na na na na.
I didn't get around to kiss you,
Goodbye on the hand.
I wish that I could see you again.
I know that I can't.
PreChorus 2:
C G
I hope you can hear me
C G
I remember it clearly
Chorus:
Em C G D
The day you slipped away
Em C
Was the day I found
G D(r)
It won't be the same
Bridge: (I really don't hear any guitar here, just drums and violin. But if
anyone can contribute any chords for this, feel free.)
I've had my wake up
Won't you wake up
I keep asking why
I can't take it
It wasn't fake
It happened you passed by
Now you're gone
Now you're gone
There you go
There you go
Somewhere I can't bring you back
Now you're gone
Now you're gone
There you go
There you go
Somewhere you're not coming back
Chorus:
Em C G D
The day you slipped away
Em C
Was the day I found
G D(r)
It won't be the same Ohhh....
Em C G D
The day you slipped away
Em C
Was the day I found
G D(r)
It won't be the same Ohhh....
Outro: Piano part
Na na, Na na na na na na
G
I miss you



Get this song at amazon.com      Ebay     Ringtones Ringtones  


Learn to play: Songwriting, Piano, Harmonica, Guitar
Also available at Muzikum: Avril Lavigne - Slipped away lyrics

Related Avril Lavigne Tabs

Mobile Solo tabs
Sk8er Boi3 tabs
My World2 tabs
Naked tabs
Innocence Bass tabs
Nobody's Fool tabs
Slipped Away tabs
Complicated Live tabs
Something Isnt Right tabs
When Youre Gone tabs
Fuel tabs
One Of Those Girls tabs
Sk8er Boi (Remix) tabs
Take Me Away tabs
Contagious tabs
Move Your Little Self On Bass tabs
Don Tell Me tabs
Forgotten tabs
Skater Boi tabs
Temple Of Life tabs


Guitar Tabs









All tabs are property and copyright of their owners. All tabs provided for educational purposes only. Privacy Policy, DMCA