Avril Lavigne

Sk8ter Boi Tabs



More from Avril Lavigne

Avril Lavigne Tabs
Avril Lavigne Chords
Avril Lavigne Bass
Avril Lavigne Lyrics

AVRIL LAVIGNE
intro SK8TER BOI
D5 A5 B5 Bb5 A5 x2
e|----------------------------------------------|
B|@--------------------------------------------@|
G|--7-7-7-7-7-----------------------------------|
D|--7-7-7-7-7-7-7-7-7-7-9-9-9-9-9--8-8-8-7-7-7--|
A|@-5-5-5-5-5-7-7-7-7-7-9-9-9-9-9--8-8-8-7-7-7-@|
E|------------5-5-5-5-5-7-7-7-7-7--6-6-6-5-5-5--|
| x2
e|----------------------------------------------|
B|--7-5b---------7-5b---------7-5b-----7-5-3b---|
G|----------------------------------------------|

VERSE
D5 A5 B5 Bb5
He was a boy She was a girl Can I make it any more obvious
D5 A5 B5 B#5 D|-----4-----
He was a punk She did ballet What more can I say A|-5-5---5----
D5 A5 B5 Bb5
He wanted her She'd never tell secretly she
D|-----4-------
wanted him as well A|-5-5---5-----

D5 A5
But all of her friends Stuck up their nose
B5 B#5
They had a problem with his baggy clothes

CHORUS
F5 C5
He was a skater boy She said see you later boy
Bb5 A5
He wasn't good enough for her
F5 C5
She had a pretty face But her head was up in space
Bb5 A5 B5 e|-12b--
She needed to come back down to earth

VERSE2
During the verse 2 one guitar do this x2
e|-----5----|---------|---------|---------|
B|--7-7--7--|-----5---|-----5---|----5----|
G|----------|-7-7---7-|---------|7-7----7-|
D|----------|---------|-7-7---7-|---------|
The same chords
5 years from now She sits at home
Feeding the baby she's all alone She turns on tv
Guess who she sees Skater boy rockin up MTV
She calls up her friends They already know
And they've all got Tickets to see his show She tags along
Stands in the crowd Looks up at the man that she turned down
He was a skater boy She said see you later boy
He wasn't good enough for her Now he's a super star
Slamming on his guitar Does your pretty face see what he's worth?

CHORUS
He was a skater boy She said see you later boy
He wasn’t good enough for her Now he's a super star
Slamming on his guitar Does your pretty facesee what he's worth?
__________ ____________
|1. |2.
G|------------5-5-5-5-5-----------------------|-------------|
D|--3-3-3-3-3-5-5-5-5-5-8-8-8-8-8-11-11-11--8-|--11-11---7--|
A|--3-3-3-3-3-3-3-3-3-3-8-8-8-8-8-11-11-11--8-|--11-11---7--|
E|--1-1-1-1-1---------- 6-6-6-6-6--9--9--9--6-|---9--9---5--|
| x2
e|-------------------------------------|
B|--10-8b-----10 8b-------10 8b--------|

D5 F5
Sorry girl but you missed out Well tough luck that boy's mine
now
B#5 Bb5 A5
We are more than just good friends This is how the story ends
D5 F5
Too bad that you couldn't see, See the man that boy could be
B#5 Bb5 A5
There is more that meets the eye I see the soul that is inside

He's just a boy And I'm just a girl
Can I make it any more obvious We are in love
Haven't you heard How we rock each others world

I'm with the skater boy I said see you later boy
I'll be back stage after the show I'll be at the studio
Singing the song we wrote About a girl you used to know

I'm with the skater boy I said see you later boy
I'll be back stage after the show I'll be at the studio
Singing the song we wrote About a girl you used to know
Get this song at amazon.com      Ebay     Ringtones Ringtones  


Learn to play: Songwriting, Piano, Harmonica, Guitar
301 Moved Permanently

Moved Permanently

The document has moved here.

Related Avril Lavigne Tabs

Things I'll Never Say (live) tabs
Contagious tabs
Girlfriend tabs
Complicated. tabs
Anything But Ordinary2 tabs
I Dont Have To Try tabs
O Holy Night Chords tabs
My Happy Ending Live tabs
Sk8er Boi4 tabs
Falling Down Bass tabs
Sk8a Boi tabs
Best Damn Thing tabs
Sk8er Boi3 tabs
Skater Boi tabs
Sk8ter Boi tabs
Nobodys Home tabs
Knocking On Heaven's Door tabs
My World tabs
I Dont Give tabs
Bonus Track tabs


Guitar Tabs




All tabs are property and copyright of their owners. All tabs provided for educational purposes only. Privacy Policy, DMCA