Avril Lavigne

Sk8er Boy Tabs



More from Avril Lavigne

Avril Lavigne Tabs
Avril Lavigne Chords
Avril Lavigne Bass
Avril Lavigne Lyrics



song: sk8er boi
band: avril lavigne
album: let go
date: 10/08/03
tabber: Irishpunk01 (Des Foley)

intro: guitar1
|----------------------------------|
|-7--5-5---7--5-5---7--5-5---7--5--|
|--------------------------------7-|
|----------------------------------| x2
|----------------------------------|
|----------------------------------|
guitar2
|-------------------------------------|
|-------------------------------------|
|-7777777-----------------------------|
|-7777777-77777777-99999999-8888-7777-|
|-5555555-77777777-99999999-8888-7777-| x2
|---------55555555-77777777-6666-5555-|



verse1: guitar 1 (slight pm)
|-------------------------------------------------------------------------|
|-------------------------------------------------------------------------|
|-77777777----------------------------77777777-------------------55555555-|
|-77777777-77777777-99999999-88888888-77777777-77777777-99999999-55555555-| x2
|-55555555-77777777-99999999-88888888-55555555-77777777-99999999-33333333-|
|----------55555555-77777777-66666666----------55555555-77777777----------|
guitar2
|----------------|
|----------------| this is played right before
|----------------| "he wanted her...." and
|---0--2--4--0---| "but all of her friends..."
|----------------|
|----------------|


chorus: guitar1 & 2
|--------------------------------------------------------------------------|
|--------------------------------------------------------------------------|
|----------55555555-33333333-22222222----------55555555-33333333-2222-3333-|
|-33333333-55555555-33333333-22222222-33333333-55555555-33333333-2222-3333-|
|-33333333-33333333-11111111-00000000-33333333-33333333-11111111-0000-1111-|
|-11111111----------------------------11111111-----------------------------|
then at end
|-13-13-13-13-13-13--slide up---------|
|-------------------------------------|
|-------------------------------------|
|-------------------------------------|
|-------------------------------------|
|-------------------------------------|


verse2: guitar1 (slight pm)
|-------------------------------------------------------------------------|
|-------------------------------------------------------------------------|
|-77777777----------------------------77777777-------------------55555555-|
|-77777777-77777777-99999999-88888888-77777777-77777777-99999999-55555555-| x2
|-55555555-77777777-99999999-88888888-55555555-77777777-99999999-33333333-|
|----------55555555-77777777-66666666----------55555555-77777777----------|
guitar2
|--------------------2-----8---------------------------14------8----|
|-77-10-7--22-5-2--33-3--55-8-5---77-10-7--22-5-2--1515--15--55-8-5-|
|-------------------------------------------------------------------|
|-------------------------------------------------------------------| x2
|-------------------------------------------------------------------|
|-------------------------------------------------------------------|


chorus: guitar1 & 2
|--------------------------------------------------------------------------|
|--------------------------------------------------------------------------|
|----------55555555-33333333-22222222----------55555555-33333333-2222-3333-|
|-33333333-55555555-33333333-22222222-33333333-55555555-33333333-2222-3333-|
|-33333333-33333333-11111111-00000000-33333333-33333333-11111111-0000-1111-|
|-11111111----------------------------11111111-----------------------------|
then at end
|-13-13-13-13-13-13--slide up---------|
|-------------------------------------|
|-------------------------------------|
|-------------------------------------|
|-------------------------------------|
|-------------------------------------|


pre bridge: guitar1
|-------------------------------------|
|--10-8-8---10-8-8--10-8-8------------|
|-------------------------------------| x2
|-------------------------------------|
|-------------------------------------|
|-------------------------------------|
guitar2
|-------------------------------------|
|-------------------------------------|
|----------55555555----------6-6-66---|
|-33333333-55555555-33333333-6-6-66---|
|-33333333-33333333-33333333-4-4-44---|
|-11111111----------11111111----------|


bridge: (play slow)
|--------------------------------------|
|--------------------------------------|
|-77777777----------55555555-3333-2222-|
|-77777777-33333333-55555555-3333-2222-|
|-55555555-33333333-33333333-1111-0000-|
|----------11111111--------------------|


verse3: guitar1 (play very light with slight pm)
|-----------------------------------------------------------------|
|-----------------------------------------------------------------|
|-7777777----------------------------77777777---------------------|
|-7777777-77777777-99999999-88888888-77777777-77777777-99999999-5-|
|-5555555-77777777-99999999-88888888-55555555-77777777-99999999-5-|
|---------55555555-77777777-66666666----------55555555-77777777-3-|
guitar2
|----------------|
|----------------|
|----------------| before "we are in love"
|---0--2--4--0---| and a bit after "havent your heard"
|----------------|
|----------------|


chourus
.......pickslide
|--------------------------------------------------------------------------| end on
|--------------------------------------------------------------------------|
|----------55555555-33333333-22222222----------55555555-33333333-2222-3333-| --5--
|-33333333-55555555-33333333-22222222-33333333-55555555-33333333-2222-3333-| x2 --5--
|-33333333-33333333-11111111-00000000-33333333-33333333-11111111-0000-1111-| --3--
|-11111111----------------------------11111111-----------------------------|


lastly (when she stops say know and then you here the police sirens do this
...tap on these with the hand you strum with)
|--3-3--2-2--1---1---------------------|
|--------------------------------------|
|--------------------------------------|
|--------------------------------------|
|--------------------------------------|
|--------------------------------------|



thats it.great song.hopefully avril and the band will have more songs like this
in their next album

enjoy and please rate


Get this song at amazon.com      Ebay     Ringtones Ringtones  


Learn to play: Songwriting, Piano, Harmonica, Guitar
Also available at Muzikum: Avril Lavigne - Sk8er Boy lyrics

Related Avril Lavigne Tabs

Get Over It tabs
Keep Holding On tabs
Best Dman Thing tabs
Everything Back But You tabs
Take Me Away tabs
Sk8er Boi4 tabs
Fall To Pieces tabs
Something Isnt Right tabs
Contagious Bass tabs
Together tabs
One Of Those Girls tabs
Why tabs
Touch The Sky tabs
Sk8er Boi2 tabs
Bonus Track tabs
I Dont Give Live tabs
Innocence tabs
Unwanted (live) tabs
Take Me Away Live tabs
Sk8a Boi tabs


Guitar Tabs









All tabs are property and copyright of their owners. All tabs provided for educational purposes only. Privacy Policy, DMCA