Avril Lavigne

Naked (live) Tabs



More from Avril Lavigne

Avril Lavigne Tabs
Avril Lavigne Chords
Avril Lavigne Bass
Avril Lavigne Lyrics



Artist - Avril Lavigne
Song name Naked (Live on Radio One)
Album - Let Go

Tuning - Standard (EADGBE)

Em - 02200x || Cadd9 - x32033
G - 32000x || G/B - x20033
Cmaj7 - x3200x || Asus4 - x0223x
Asus2 - x02200 || C - x32010
D - xx0232 ||

h = hammer on = natural harmonic on specified fret
/ = slide up x = scratch
= slide down b = bend
~ = vibrato r = release bend

/|-------------------------------------------------------|
|| NOTE! ||
||There are 3 guitars playing in this song, but guitar 3 ||
||plays the same as guitar 1 basically! ||
|-------------------------------------------------------|/


[INTRO]
Guitar 1 with delay (repeat twice)
2nd ending
e/|--x--x-------x--x-------x----0----x-----|-------------|
B||--0--0-------0--0-------0----0----0-----|-----0-------||
G||--0--0-------0--0-------0----0----0-----|----0--------||
D||--2--2-------0--0-------2----2----2-----|---2---------||
A||--2--2-------2--2-------3----3----3-----|--3----------||
E|--0--0-------3-3-------x----x----x-----|-------------|/

Guitar 1 with delay (repeat twice)

e/|--x--x-------x--x-------x----0----x-------------------|
B||--0--0-------0--0-------0----0----0-------------------||
G||--0--0-------0--0-------0----0----0-------------------||
D||--2--2-------0--0-------2----2----2-------------------||
A||--2--2-------2--2-------3----3----3-------------------||
E|--0--0-------3-3-------x----x----x-------------------|/

Guitar 1 with delay

e/|--x--x-------x--x-------x----0----x-------------------|
B||--0--0-------0--0-------0----0----0-------------------||
G||--0--0-------0--0-------0----0----0-------------------||
D||--2--2-------0--0-------2----2----2-------------------||
A||--2--2-------2--2-------3----3----3-------------------||
E|--0--0-------3-3-------x----x----x-------------------|/
| |
| Guitar 2 distorted |
| |
e/|------------------------------------------------------|
B||------------------------------------------------------||
G||------------------------------------------------------||
D||--2--2-------5--5-------10-10-10-10---10--x-x---------||
A||--2--2-------x--x-------x--x--x--x----x---x-x---------||
E|--x--x-------3--3-------8--8--8--8----8---x-x---------|/

Guitar 1 with delay

e/|--0--0--0--0--0--0--0--0------------------------------|
B||--0--0--0--0--0--0--0--0------------------------------||
G||--2--2--2--2--2--2--2--2------------------------------||
D||--2--2--2--2--2--2--2--2------------------------------||
A||--0--0--0--0--0--0--0--0------------------------------||
E|--x--x--x--x--x--x--x--x------------------------------|/
| |
| Guitar 2 distorted |
| |
e/|------------------------------------------------------|
B||------------------------------------------------------||
G||------------------------------------------------------||
D||--7~~~~~~~~~~~~---------------------------------------||
A||--x---------------------------------------------------||
E|--5~~~~~~~~~~~~---------------------------------------|/


[VERSE 1]

Guitar 1

e/|--x---------3---------x-------------------------------|
B||--0---------x---------0-------------------------------||
G||--0---------4---------0-------------------------------||
D||--2---------5---------2-------------------------------||
A||--2---------5---------3-------------------------------||
E|--0---------3---------x-------------------------------|/
| |
| Guitar 2 distorted |
| |
e/|------------------------------------------------------|
B||------------------------------------------------------||
G||------------------------------------------------------||
D||--2--2------5--5------10-10-10-10---10----------------||
A||--2--2------x--x------x--x--x--x----x-----------------||
E|--x--x------3--3------8--8--8--8----8-----------------|/


Guitar 1

e/|--0--------------3------------------------------------|
B||--0--------------2------------------------------------||
G||--2--------------3------------------------------------||
D||--2--------------0------------------------------------||
A||--0---------------------------------------------------||
E|--x---------------------------------------------------|/
| |
| Guitar 2 distorted |
| |
e/|------------------------------------------------------|
B||------------------------------------------------------||
G||-----------------7~/---------------------------------||
D||--7~~~~~~--------x------------------------------------||
A||--x--------------5~/---------------------------------||
E|--5~~~~~~---------------------------------------------|/


[CHORUS]

Guitar 1 and Guitar 2 distorted

e/|--3----3----3----0----0----0--------------------------|
B||--3----3----3----3----0----1--------------------------||
G||--0----0----0----2----0----0--------------------------||
D||--0----2----0----2----2----2--------------------------||
A||--2----3----3----0----2----3--------------------------||
E|--3----x----x----x----0----x--------------------------|/

[Riff 1]

Guitar 1

e/|------x-----3--------x--------------------------------|
B||------0-----x--------0--------------------------------||
G||------0-----4--------0--------------------------------||
D||------2-----5--------2--------------------------------||
A||------2-----5--------3--------------------------------||
E|------0-----3--------x--------------------------------|/
| |
| Guitar 2 distorted |
| |
e/|--1/--7-----7-----------------------------------------|
B||-------8-----8----8--b7~-b7~-b7~-b7------------------||
G||--------9---------------------------------------------||
D||------------------------------------------------------||
A||------------------------------------------------------||
E|------------------------------------------------------|/


[VERSE 2]

Guitar 1

e/|--x---------3---------x-----------------0------3------|
B||--0---------x---------0-----------------0------2------||
G||--0---------4---------0-----------------2------3------||
D||--2---------5---------2-----------------2------0------||
A||--2---------5---------3-----------------0-------------||
E|--0---------3---------x-----------------x-------------|/
| |
| Guitar 2 distorted |
| |
e/|--0---------3---------0-------------------------------|
B||--0---------0---------0-------------------------------||
G||--0---------0---------0------------------------7------||
D||--2---------0---------2-----------------7------x------||
A||--2---------2---------3-----------------x------5------||
E|--x---------3---------x-----------------5-------------|/


[CHORUS]

Same as before


[BRIDGE]
Guitar 1 (repeat twice)

e/|--x-----------------3--------------0------------------|
B||--0-----------------2--------------1------------------||
G||--0-----------------3--------------0------------------||
D||--2-----------------0--------------2------------------||
A||--2--------------------------------3------------------||
E|--0--------------------------------x------------------|/
| |
| Guitar 2 distorted (repeat twice) |
| |
e/|------------------------------------------------------|
B||------------------------------------------------------||
G||--9---9--9--9--9----11-12--11-15---12-12~-------------||
D||--x---x--x--x--x----x--x---x--x----x--x---------------||
A||--7---7--7--7--7----9--10--9--13---10-10~-------------||
E|------------------------------------------------------|/


[SOLO]

Guitar 1 plays the same as in the bridge

Guitar 2 distorted

e/|------------------------------------------------------|
B||--12/15-15-b15(17)r--15-13----------------------------||
G||--------------------------15-13-----------------------||
D||-------------------------------15-15~~/12-------------||
A||------------------------------------------------------||
E|------------------------------------------------------|/

e/|------------------------------------------------------|
B||------------------------------------------12-14-------||
G||-----------------12-14-12--------12--12-14------------||
D||------------12-14--------14-12-14--14-----------------||
A||-------12-14------------------------------------------||
E|--12-14-----------------------------------------------|/

e/|------------------------------------------------------|
B||--b16-16-b16-16-b16-16-b16-16-b16-16-b16-16-b16-16----||
G||------------------------------------------------------||
D||------------------------------------------------------||
A||------------------------------------------------------||
E|------------------------------------------------------|/

e/|--12--------------------------------------------------|
B||----14-12---------------------------------------------||
G||---------14-12~~~~~-----------------------------------||
D||------------------------------------------------------||
A||------------------------------------------------------||
E|------------------------------------------------------|/

Guitar 1 and Guitar 2 distorted

e/|--3----3----3----0----0----0--------------------------|
B||--3----3----3----3----0----1--------------------------||
G||--0----0----0----2----0----0--------------------------||
D||--0----2----0----2----2----2--------------------------||
A||--2----3----3----0----2----3--------------------------||
E|--3----x----x----x----0----x--------------------------|/

Guitar 1 with delay
[I'm so naked........]
e/|--x--x-------x--x-------x----0----x--x----------------|
B||--0--0-------0--0-------0----0----0--0----------------||
G||--0--0-------0--0-------0----0----0--0----------------||
D||--2--2-------0--0-------2----2----2--2----------------||
A||--2--2-------2--2-------3----3----3--3----------------||
E|--0--0-------3-3-------x----x----x--x----------------|/
| |
| Guitar 2 distorted |
| |
e/|------------------------------------------------------|
B||------------------------------------------------------||
G||------------------------------------------------------||
D||--2----------5----------10--------10-x----------------||
A||--2----------x----------x---------x--x----------------||
E|--x----------3----------8---------8--x----------------|/

Guitar 1 with delay
[baby...]
e/|--x--x-------x-----x---------------0------------------|
B||--0--0-------0-----0--------------0-------------------||
G||--0--0-------0-----0-------------0--------------------||
D||--2--2-------0-----2------------2---------------------||
A||--2--2-------2-----3-----------2----------------------||
E|--0--0-------3----x----------0-----------------------|/
| |
| Guitar 2 distorted |
| |
e/|------------------------------------------------------|
B||------------------------------------------------------||
G||------------------------------------------------------||
D||--2--2-------5-----10---------2-----------------------||
A||--2--2-------x-----x----------2-----------------------||
E|--x--x-------3-----8----------x-----------------------|/




[SOLO] from Teen Nicklodeon concert

e/|------------------------------------------------------|
B||------------------------------------------------------||
G||--9---9--9--9--9----11-12--11-15---12-12~-------------||
D||--x---x--x--x--x----x--x---x--x----x--x---------------||
A||--7---7--7--7--7----9--10--9--13---10-10~-------------||
E|------------------------------------------------------|/

e/|--x---------------------------------------------------|
B||--x--15-15-b15(17)r--15-13----------------------------||
G||--x-----------------------15-13-----------------------||
D||--x----------------------------15-15~~/12-------------||
A||--x---------------------------------------------------||
E|--x---------------------------------------------------|/

e/|------------------------------12-14-------------------|
B||----------------------12-14-16-----14-12--------------||
G||-----------------12-14------------------14-12~~~~~~---||
D||------------12-14-------------------------------------||
A||-------12-14------------------------------------------||
E|--12-14-----------------------------------------------|/


Get this song at amazon.com      Ebay     Ringtones Ringtones  


Learn to play: Songwriting, Piano, Harmonica, Guitar
More Avril Lavigne lyrics available at Muzikum

Related Avril Lavigne Tabs

My World tabs
I'm With You (live) tabs
O Holy Night Chords tabs
Together tabs
Best Damn Thing tabs
Im With You Intro tabs
Im With You tabs
Get Over It tabs
Naked (live) tabs
Why tabs
My Happy Ending Live tabs
Im With You2 tabs
Things I'll Never Say tabs
My Happy Ending tabs
Unwanted tabs
Things Ill Never Say tabs
Sk8er Boi (Remix) tabs
I Dont Give tabs
Sk8er Boy tabs
Girlfriend tabs


Guitar Tabs









All tabs are property and copyright of their owners. All tabs provided for educational purposes only. Privacy Policy, DMCA