Avril Lavigne

My Happy Ending Live Tabs



More from Avril Lavigne

Avril Lavigne Tabs
Avril Lavigne Chords
Avril Lavigne Bass
Avril Lavigne Lyrics



Tunning: Standard

Intro:

E|-----------------------|
B|-7h8--7h8--7-----------|
G|-------------9--7p9--7-|
D|-----------------------|
A|-----------------------|
E|-----------------------|

So Much For My Happy Ending.

Bm G D A
Oh-Oh Oh-Oh Oh-Oh Oh-Oh
Bm G D A
Oh-Oh Oh-Oh Oh-Oh

Bm G D A
E|-0----0----0----0----3----3----3----3----2----2----2----2----0----0----0----0---|
B|-3----3----3----3----3----3----3----3----3----3----3----3----2----2----2----2---|
G|---4----4----4----4----0----0----0----0----2----2----2----2----2----2----2----2-|
D|--------------------------------------------------------------------------------|
A|--------------------------------------------------------------------------------|
E|--------------------------------------------------------------------------------|

Bm G
Lets talk this over; its not like we're dead.
D A
Was it something i did? Was it something you said?
Bm G
Don't leave me hanging in a city so dead.
D A
Held up so high on such a breakable thread.

G A G A
E|---------0--------------0--------------0--------------0-|
B|-----3-----3--------0-----0--------3-----3--------0-----|
G|---2---2-----2----2---2-----2----2---2-----2----2---2---|
D|--------------------------------------------------------|
A|----------------0-----------------------------0---------|
E|-3-----------------------------3------------------------|

Pre-Chorus:
G A
And you were all the things I thought I knew.
G A
And I thought we could be.


Chorus:
G D A
You were everything, everything that I wanted.
G D A
And we were meant to be, supposed to be, but we lost it.
G D A Bm
And all of the memories so close to me just fade away.
Em G -----No Strings-----
All this time you were pretending, so much for my happy ending.


Bm G D A
Oh-Oh Oh-Oh Oh-Oh Oh-Oh
Bm G D
Oh-Oh Oh-Oh Oh-Oh

A Bm G
You've got your dumb friends, I know what they say.
D A
They tell you I'm difficult, but so are they.
Bm G
But they don't know me, do they even know you?
D A
All the things you hide from me, all the *** that you do.

G A G A
E|---------0--------------0--------------0--------------0---9h10p9----|
B|-----3-----3--------0-----0--------3-----3--------0--------------10-|
G|---2---2-----2----2---2-----2----2---2-----2----2---2---------------|
D|--------------------------------------------------------------------|
A|----------------0-----------------------------0---------------------|
E|-3-----------------------------3------------------------------------|

Pre-Chorus:
G A
And you were all the things I thought I knew.
G A
And I thought we could be.


Chorus:
G D A
You were everything, everything that I wanted.
G D A
And we were meant to be, supposed to be, but we lost it.
G D A Bm
And all of the memories so close to me just fade away.
Em G
All this time you were pretending, so much for my happy ending.


A G
It's nice to know that you were there,
A
Thanks for acting like you cared,
G
And making me feel like I was the only one.
A Bm G
It's nice to know we had it all, thanks for watching as I fall,
A
And letting me know we were done.


Chorus 2:

G-ring D-ring A-ring Harmonics @ Fret 7
He was everything, everything that I wanted.
G D A
And we were meant to be, supposed to be, but we lost it.
G D A Bm
And all of the memories so close to me just fade away.
Em G
All this time you were pretending, so much for my happy ending.


Chorus:
G D A
You were everything, everything that I wanted.
G D A
And we were meant to be, supposed to be, but we lost it.
G D A Bm
And all of the memories so close to me just fade away.
Em G -----No Strings-----
All this time you were pretending, so much for my happy ending.


Bm G D A
Oh-Oh Oh-Oh Oh-Oh Oh-Oh
Bm G D A
Oh-Oh Oh-Oh Oh-Oh Oh-Oh
Bm G D A G
Oh-Oh Oh-Oh Oh-Oh Oh-Oh

Outro:

E|-2-------|
B|---3-----|
G|-----4---| x4
D|-------4-|
A|---------|
E|---------|


Get this song at amazon.com      Ebay     Ringtones Ringtones  


Learn to play: Songwriting, Piano, Harmonica, Guitar
301 Moved Permanently

Moved Permanently

The document has moved here.

Related Avril Lavigne Tabs

Girlfriend tabs
I Can Do Better tabs
Sk8a Boi tabs
Tomorrow tabs
Nobodys Fool tabs
Complicated (riff) tabs
Unwanted (live) tabs
Girlfriend Bass tabs
Sk8er Boi tabs
Take Me Away tabs
Im With You2 tabs
Fall To Pieces tabs
He Wasnt Live tabs
Sk8er Boi2 tabs
Innocence tabs
O Holy Night Chords tabs
No One Needs To Know tabs
Sk8er Boi (Remix) tabs
Too Much To Ask tabs
Temple Of Life tabs


Guitar Tabs




All tabs are property and copyright of their owners. All tabs provided for educational purposes only. Privacy Policy, DMCA