Avril Lavigne

Let Go Album Tabs



More from Avril Lavigne

Avril Lavigne Tabs
Avril Lavigne Chords
Avril Lavigne Bass
Avril Lavigne Lyrics



ARTIST : Avril Lavigne
ALBUM : Let Go (2002.)
GERNE : Pop/Rock
SONGS :
1. Losing Grip
2. Complicated
3. Sk8er Boi
4. I'm With You
5. Mobile
6. Unwanted
7. Tomorrow
8. Anything But Ordinary
9. Things I'll Never Say
10. My World
11. Nobodys Fool
12. Too Much To Ask
13. Naked

This is the first solo album of Avril Lavigne, Let Go (2002.)
Here you can find tabs and/or chords for all songs from that album.
All tabbers, including myself, are credited for each song, as this
is collection of different tabs for all songs from "Let Go".

Tabs collected, corrected & tabbed by Riki. http://www.igiavril.tk


1. L o s i n g G r i p


Tabbed by Riki (www.igiavril.tk)
I've done this simple version just to easly play this song on
standard tuned guitar with power chords (as it is mostly played
but in ).

Standard E tuning

Intro & Verse:
Ab E Gb E
e----------|---------|---------|---------|
H----------|---------|---------|---------|
G----------|---------|---------|---------|
D--6-------|-2-------|-4-------|-2-------|
A--6-6-6-6-|-2-2-2-2-|-4-4-4-4-|-2-2-2-2-|
E--4-4-4-4-|-0-0-0-0-|-2-2-2-2-|-0-0-0-0-|

Chorus:
Ab Eb E Eb Ab Eb E C#
e-----------------|----------------|----------------|----------------|
H-----------------|----------------|----------------|----------------|
G----------8--8-8-|-9--9-9--8--8-8-|---------8--8-8-|-9--9-9--6--6-6-|
D--6--6-6--8--8-8-|-9--9-9--8--8-8-|-6--6-6--8--8-8-|-9--9-9--6--6-6-|
A--6--6-6--6--6-6-|-7--7-7--6--6-6-|-6--6-6--6--6-6-|-7--7-7--4--4-4-|
E--4--4-4---------|----------------|-4--4-4---------|----------------|

Middle:
"Cryin' out loud I'm cryin out loud..."
...
"Open your eyes...."
C# E Gb E
e-----------------|----------------|
H-----------------|----------------|
G--6--6-6--9--9-9-|----------------|
D--6--6-6--9--9-9-|-4--4-4--2--2-2-|
A--4--4-4--7--7-7-|-4--4-4--2--2-2-|
E-----------------|-2--2-2--0--0-0-|

"Why.. should I care?..."
Ab Gb E Gb
e-----------------|----------------|
H-----------------|----------------|
G-----------------|----------------|
D--8--8-8--6--6-6-|-2--2-2--6--6-6-|
A--8--8-8--6--6-6-|-2--2-2--6--6-6-|
E--6--6-6--4--4-4-|-0--0-0--4--4-4-|


Tabbed by Charles de la Cruz (http://members.rogers.com/avrillavigne/)
Tuning - Standard Eb (Eb-Ab-Db-Gb-Bb-Eb)

All the chords are standard except for a few
Aadd2 - x024xxx or x02200
G/B - x20000x

Am F G F
Am F G F
[Verse:]
Am F G F
Are you aware of what you make me feel baby
Am F G F
Right now I feel invisible to you like I'm not real
Am F G F Am
Didn't you feel me lock my arms around you why'd you turn away
E G F
Here's what I have to say
Am F G
I was left to cry there waiting outside there grinning with the lost stare
F
That's when I decided
[Chorus:]
Am Em F Em
Why should I care
Am Em F D5
Cause you weren't there when I was scared I was so alone
Am Em F Em
You, you need to listen
Am Em F D5
I'm starting to trip I'm losing my grip and I'm in this thing alone

Am F G F
[Verse:]
Am F G F
Am I just some chick you place beside you to take somebody's place
Am F G F
When you turn around can you recognize my face
Am F G F Am
You used to love me you used to hug me but that wasn't the case
F G F
Everything wasn't okay
Am F G
I was left to cry there waiting outside there grinning with the lost stare
F
That's when I decided
[Chorus:]
Am Em F Em
Why should I care
Am Em F D5
Cause you weren't there when I was scared I was so alone
Am Em F Em
You, you need to listen
Am Em F D5
I'm starting to trip I'm losing my grip and I'm in this thing alone
[Middle:]
D (F) (G) (F)
Cryin' out loud I'm cryin out loud
D (F) (G) (F)
Cryin' out loud I'm cryin out loud

D F G F
Open your eyes
D F G F
Open up wide

Aadd2 G/B F G/B
Why should I care
Aadd2 G/B F
Cause you weren't there when I was scared I was so alone
[Chorus:]
Am Em F Em
Why should I care
Am Em F D5
Cause you weren't there when I was scared I was so alone
Am Em F Em
You, you need to listen
Am Em F D5
I'm starting to trip I'm losing my grip and I'm in this thing alone
Am Em F Em
Why should I care
Am Em F D5
Cause you weren't there when I was scared I was so alone
Am Em F Em
You, you need to listen
Am Em F D5
I'm starting to trip I'm losing my grip and I'm in this thing alone





2. C o m p l i c a t e d

Complicated (Live on Radio One) [I put live version as it's same as CD but with
more guitar suff played]
Tabbed by Navid Navidb86@hotmail.com
Tuning - Standard (EADGBE)
F - 133211
C - x32010
Dm - xx0231
Bb - 113331
Gm - 355333

= slide down r = release bend
/ = slide up
~ = vibrato
b = bend
x = scratch


[INTRO]
Guitar 1 plays this 4 times

e/|--1------------1------------1------------0------------|
B||--3------------3------------1------------1------------||
G||--2------------3------------2------------0------------||
D||--0------------3------------3------------2------------||
A||---------------1------------3------------3------------||
E|---------------1------------1-------------------------|/
| |
| Guitar 2 distorted |
| |
e/|------------------------------------------------------|
B||---------------6--------------------------------------||
G||--5-/-7~~------7------------2--3--2---/--5~~----------||
D||--5-/-7~~------7------------3--3--3-------------------||
A||------------------------------------------------------||
E|------------------------------------------------------|/
| |
| Guitar 2 distorted |
| |
e/|------------------------------------------------------|
B||---------------6~~------------------------------------||
G||--5-/-7~~-------------------2--3--2---/--5~~----------||
D||--5-/-7~~-------------------3--3--3-------------------||
A||------------------------------------------------------||
E|------------------------------------------------------|/
| |
| Guitar 2 distorted |
| |
e/|-----------------------------------------13--12~~-----|
B||---------------13~~-----------------------------------||
G||--14/-----------------------14-10-12-14~~-------------||
D||------------------------------------------------------||
A||--12/-----------------------12--8-10-12~~-------------||
E|------------------------------------------------------|/
| |
| Guitar 2 distorted |
| |
e/|-----------------------------------------b9~~-r-------|
B||---------------10~~-----------------------------------||
G||--14/----------10~~---------14-10-12-14~~-------------||
D||------------------------------------------------------||
A||--12/-----------------------12--8-10-12~~-------------||
E|------------------------------------------------------|/

[VERSE 1]
Guitar 1
e/|--1------------1------------1------------0------------|
B||--2------------3------------3------------1------------||
G||--3------------2------------3------------0------------||
D||--3------------0------------3------------2------------||
A||--1-------------------------1------------3------------||
E|--1-------------------------1-------------------------|/
| |
| Guitar 2 |
| |
e/|----------------------------1------------3------------|
B||----------------------------1------------3------------||
G||----------------------------3------------5------------||
D||----------------------------3------------5------------||
A||----------------------------1------------3------------||
E|----------------------------1------------3------------|/

Guitar 1
e/|--1------------1------------1------------0------------|
B||--2------------3------------3------------1------------||
G||--3------------2------------3------------0------------||
D||--3------------0------------3------------2------------||
A||--1-------------------------1------------3------------||
E|--1-------------------------1-------------------------|/
| |
| Guitar 2 |
| |
e/|--1------------5------------1--1---------3------------|
B||--2------------6------------1----1-------3------------||
G||--3------------7------------3------------5------------||
D||--3------------7------------3------------5------------||
A||--1------------5------------1------------3------------||
E|--1------------5------------1------------3------------|/

[BRIDGE]
Guitar 1
e/|--1------------------------1--------------------------|
B||--3------------------------3--------------------------||
G||--3------------------------2--------------------------||
D||--3------------------------0--------------------------||
A||--1---------------------------------------------------||
E|--1---------------------------------------------------|/
| |
| Guitar 2 distorted |
| |
e/|------------------------------------------------------|
B||------------------------------------------------------||
G||--3-xx-3--x-3--x-3--x-3-xx-7-xx-7--x-7--x-7--x-7-xx---||
D||--3-xx-3--x-3--x-3--x-3-xx-7-xx-7--x-7--x-7--x-7-xx---||
A||--1-xx-1--x-1--x-1--x-1-xx-5-xx-5--x-5--x-5--x-5-xx---||
E|------------------------------------------------------|/

e/|--1------------------------3--------------------------|
B||--3------------------------3--------------------------||
G||--3------------------------5--------------------------||
D||--3------------------------5--------------------------||
A||--1------------------------3--------------------------||
E|--1------------------------3--------------------------|/
| |
| Guitar 2 distorted |
| |
e/|------------------------------------------------------|
B||------------------------------------------------------||
G||--3-xx-3--x-3--x-3--x-3-xx-5--------------------------||
D||--3-xx-3--x-3--x-3--x-3-xx-5--------------------------||
A||--1-xx-1--x-1--x-1--x-1-xx-3--------------------------||
E|------------------------------------------------------|/

[CHORUS]
play this three times
Guitar 1
e/|--1-----------1-----------1------------0--------------|
B||--3-----------3-----------1------------1--------------||
G||--2-----------3-----------2------------0--------------||
D||--0-----------3-----------3------------2--------------||
A||--------------1-----------3------------3--------------||
E|--------------1-----------1---------------------------|/
| |
| Guitar 2 distorted |
| |
e/|------------------------------------------------------|
B||------------------------------------------------------||
G||--7--7--7--7--------------10-10-10-10--5--5--5--5-----||
D||--7--7--7--7--8--8--8--8--10-10-10-10--5--5--5--5-----||
A||--5--5--5--5--8--8--8--8---8--8--8--8--3--3--3--3-----||
E|--------------6--6--6--6---8--8--8--8-----------------|/

then the chorus ends like this
Guitar 1
e/|--3---------------------1------------1----------------|
B||--3---------------------1------------1----------------||
G||--3---------------------3------------2----------------||
D||--5---------------------3------------3----------------||
A||--5---------------------3------------3----------------||
E|--3---------------------1------------1----------------|/
| |
| Guitar 2 distorted |
| [Honestly and........] |
e/|-------------------3~---------------------------------|
B||----------------3~------6~~----------6~~-------------||
G||-------------3~---------------------------------------||
D||--5---------------------------------------------------||
A||--5---------------------------------------------------||
E|--3---------------------------------------------------|/

[VERSE 2]
Guitar 1
e/|--1------------1------------1------------0------------|
B||--2------------3------------3------------1------------||
G||--3------------2------------3------------0------------||
D||--3------------0------------3------------2------------||
A||--1-------------------------1------------3------------||
E|--1-------------------------1-------------------------|/
| |
| Guitar 2 |
| |
e/|--1------------5------------1--1---------3------------|
B||--2------------6------------1----1-------3------------||
G||--3------------7------------3------------5------------||
D||--3------------7------------3------------5------------||
A||--1------------5------------1------------3------------||
E|--1------------5------------1------------3------------|/

Guitar 1
e/|--1------------1------------1------------0------------|
B||--2------------3------------3------------1------------||
G||--3------------2------------3------------0------------||
D||--3------------0------------3------------2------------||
A||--1-------------------------1------------3------------||
E|--1-------------------------1-------------------------|/
| |
| Guitar 2 |
| |
e/|--1------------5------------1--1-1-------3------------|
B||--2------------6------------1--1-1-------3------------||
G||--3------------7------------3------------5------------||
D||--3------------7------------3------------5------------||
A||--1------------5------------1------------3------------||
E|--1------------5------------1------------3------------|/

[BRIDGE]
same as before

[CHORUS]
Guitar 1 plays the same chorus
Guitar 2 distorted
e/|------------------------------------------------------|
B||------------------------------------------------------||
G||--7--7--7--7--------------10-10--10---5--5--3--5-----||
D||--7--7--7--7--8--8--8--8--10-10--10---5--5--3--5-----||
A||--5--5--5--5--8--8--8--8---8--8--------3--3--3--3-----||
E|--------------6--6--6--6---8--8-----------------------|/

e/|-------------------3~---------------------------------|
B||----------------3~------6~~/11------------------------||
G||-------------3~---------------------------------------||
D||--5---------------------------------------------------||
A||--5---------------------------------------------------||
E|--3---------------------------------------------------|/
Guitar 1
e/|-------1---------1---------1----------0---------------|
B||-------2---------3---------3----------1---------------||
G||-------3---------2---------3----------0---------------||
D||-------3---------0---------3----------2---------------||
A||-------1-------------------1----------3---------------||
E|-------1-------------------1--------------------------|/
| |
| Guitar 2 distorted |
| [No no no....] |
e/|------------------------------------------------------|
B||--11-10-----11-10-----11-10-----11-10-13~---11-10-6~~-||
G||-------10~-------10~-------10~------------------------||
D||------------------------------------------------------||
A||------------------------------------------------------||
E|------------------------------------------------------|/

[VERSE 3]
Guitar 1
e/|--1------------1------------1------------0------------|
B||--2------------3------------3------------1------------||
G||--3------------2------------3------------0------------||
D||--3------------0------------3------------2------------||
A||--1-------------------------1------------3------------||
E|--1-------------------------1-------------------------|/
| |
| Guitar 2 |
| |
e/|-----------------------------------------3------------|
B||-----------------------------------------3------------||
G||-----------------------------------------5------------||
D||-----------------------------------------5------------||
A||-----------------------------------------3------------||
E|-----------------------------------------3------------|/

[BRIDGE]
Guitar 1
e/|--1------------1------------1------------0-0-0-0-0----|
B||--3------------3------------3------------1-1-1-1-1----||
G||--3------------2------------3------------0-0-0-0-0----||
D||--3------------0------------3------------2-2-2-2-2----||
A||--1-------------------------1------------3-3-3-3-3----||
E|--1-------------------------1-------------------------|/
| |
| Guitar 2 |
| |
e/|--1-1----------5-5----------1-1-----------------------|
B||--1--1---------6--6---------1--1----------------------||
G||--3---3--------7------------3---3--------5-5-5-5-5----||
D||--3----3-------7------------3----3-------5-5-5-5-5----||
A||--1------------5------------1------------3-3-3-3-3----||
E|--1------------5------------1-------------------------|/

[CHORUS]
Guitar 1 and 2 plays the same chorus

Guitar 2 ends like this though
[No no...]
e/|-------------------3~---------------------------------|
B||----------------3~------------------------------------||
G||-------------3~----------9~~--------------------------||
D||--5---------------------------------------------------||
A||--5----------------------6~~--------------------------||
E|--3---------------------------------------------------|/

then there is a difference on the last chorus

play this twice
Guitar 1
e/|--1-----------1-----------1------------0--------------|
B||--3-----------3-----------1------------1--------------||
G||--2-----------3-----------2------------0--------------||
D||--0-----------3-----------3------------2--------------||
A||--------------1-----------3------------3--------------||
E|--------------1-----------1---------------------------|/
| |
| Guitar 2 distorted |
| |
e/|------------------------------------------------------|
B||------------------------------------------------------||
G||--7--7--7--7--------------10-10--10---5--5--3--5-----||
D||--7--7--7--7--8--8--8--8--10-10--10---5--5--3--5-----||
A||--5--5--5--5--8--8--8--8---8--8--------3--3--3--3-----||
E|--------------6--6--6--6---8--8-----------------------|/
then this
Guitar 1
e/|--1-----------1-----------1------------0--------------|
B||--3-----------3-----------1------------1--------------||
G||--2-----------3-----------2------------0--------------||
D||--0-----------3-----------3------------2--------------||
A||--------------1-----------3------------3--------------||
E|--------------1-----------1---------------------------|/
| |
| Guitar 2 distorted |
| |
e/|------------------------------------------------------|
B||------------------------------------------------------||
G||--7--7--7--7--7--7--7--7--10-10-10-10-5--5--5--5-----||
D||--------------------------10-10-10-10-5--5--5--5-----||
A||--5--5--5--5--5--5--5--5---8--8--8-----3--3--3--3-----||
E|---------------------------8--8--8--------------------|/
and it ends like this

Guitar 1
e/|--3---------------------1-----------------------------|
B||--3---------------------1-----------------------------||
G||--3---------------------3-----------------------------||
D||--5---------------------3-----------------------------||
A||--5---------------------3-----------------------------||
E|--3---------------------1-----------------------------|/
| |
| Guitar 2 distorted |
| |
e/|-------------------3~---------------------------------|
B||----------------3~------6~~---------------------------||
G||-------------3~---------------------------------------||
D||--5---------------------------------------------------||
A||--5---------------------------------------------------||
E|--3---------------------------------------------------|/





3. S k 8 e r B o i

Tabbed by Charles de la Cruz (http://www.comeunglued.com/avril/)
Tuning - Standard (EADGBE)
= Slide down
/ = Slide up
~ = vibrato
* = strum chord
^ = bend up
+ = wah pedal closed
o = wah pedal open
= Natural Harmonic on specified fret
p.s. = pick scrape
p.m. = palm mute

[INTRO] [RIFF1]
Guitar 1
e/|-------|-------------------------------------------------|
B||-------|-------------------------------------------------||
G||-------|--/11-9~~~--/11-9~~~--/11-9~~~--/11-9~~-7~~~--||
D||-------|-------------------------------------------------||
A||-------|--/-9-7~~~--/-9-7~~~--/-9-7~~~--/-9-7~~-5~~~--||
E|--10--|-------------------------------------------------|/
| | |
| |Guitar 2 |
| | ******** ******** ******** **** **** |
e/|-------|-------------------------------------------------|
B||-------|-------------------------------------------------||
G||-------|-7-----------------------------------------------||
D||-------|-7----------7----------9----------8------7-------||
A||-------|-5----------7----------9----------8------7-------||
E|-------|------------5----------7----------6------5-------|/

[VERSE]
Guitar 2 plays these chords about 8 times each...
e/|---------------------------------------------------------|
B||---------------------------------------------------------||
G||--7---------------------------7--------------------------||
D||--7------7------9------8------7------7------9-----10-----||
A||--5------7------9------8------5------7------9-----10-----||
E|---------5------7------6-------------5------7------8-----|/

Guitar 1 plays these fills during the first verse...
{ballet, what more can I say...}
e/|---------------------------------------------|
B||---------------------------------------------|
G||--4----4----5--------------------------------|
D||-----------------------------0--2--4--0------|
A||---------------------------------------------|
E|---------------------------------------------|
{wanted her, she'd never tell...}
e/|---------------------------------------------|
B||---------------------------------------------|
G||--2----2----4----4----3----------------------|
D||-----------------------------0--2--4--0------|
A||---------------------------------------------|
E|---------------------------------------------|
{friends, stuck up...} p.s.
e/|------------------------------------|
B||------------------------------------||
G||--4----4----5----------------x-----||
D||-----------------------------x-----||
A||------------------------------------||
E|------------------------------------|/

[CHORUS]
** chords are played about 8 times each **
e/|---------------------------------------------13---13---13----|
B||---------------------------------------------16^--16^--16^---||
G||--10------------------10-------------------------------------||
D||--10---10----8----7---10---10----8----7----8-----------------||
A||---8---10----8----7----8---10----8----7----8-----------------||
E|--------8----6----5---------8----6----5----6-----------------|/

[VERSE 2] Guitar 2 plays the same chords
Guitar 1 plays the following...
p.m..........................................
e/|----5-------------------------------------------|
B||--7---7~~~----5---------7-----------------------|
G||------------6---6~~~--7---7~~~---7--7--7--7-7-7-|
D||------------------------------------------------|
A||------------------------------------------------|
E|------------------------------------------------|
p.m...............
e/|----5-------------------------------------------|
B||--7---7~~~----5------------------------------|
G||------------6---6~~~----------------------|
D||------------------------------------------------|
A||------------------------------------------------|
E|--------------------------------/8~~--/8~~~---|
p.m..........................................
e/|----5-------------------------------------------|
B||--7---7~~~----5---------7-----------------------|
G||------------6---6~~~--7---7~~~---7--7--7--7-7-7-|
D||------------------------------------------------|
A||------------------------------------------------|
E|------------------------------------------------|
p.m.........................
e/|----5-------------------------------------------|
B||--7---7~~~----5---------7--------8--------------||
G||------------6---6~~~--7---7~~~-----9----0-------||
D||-------------------------------------10---2-----||
A||--------------------------------------------3---||
E|----------------------------------------------3-|/

[CHORUS 2]
During this chorus there sounds like there's a wah pedal
F C Bb A
o +
e/|-------------------|
B||-------------------||
G||-------------2-----||
D||-------------2-----||
A||-------------0-----||
E|-------------------|/

[RIFF 2]
Guitar 1
e/|------------------------------------------------|
B||------------------------------------------------|
G||---/14-12~~~--/14-12~~~--/14-12~~~-----------|
D||------------------------------------------------|
A||---/12-10~~~--/12-10~~~--/12-10~~~-----------|
E|------------------------------------------------|
| |
| Guitar 2 |
| ******** ******** ******** |
e/|------------------------------------------------|
B||------------------------------------------------|
G||--------------5-----------3------------6--6--6--|
D||--3-----------5-----------3------------6--6--6--|
A||--3-----------3-----------1------------4--4--4--|
E|--1---------------------------------------------|

Guitar 1
e/|------------------------------------------------|
B||------------------------------------------------||
G||---/14-12~~~--/14-12~~~--/14-12~~~-----------||
D||------------------------------------------------||
A||---/12-10~~~--/12-10~~~--/12-10~~~-----------||
E|------------------------------------------------|/
| |
| Guitar 2 |
| ******** ******** ******** |
e/|------------------------------------------------|
B||------------------------------------------------||
G||--------------5-----------3------------6--6-----||
D||--3-----------5-----------3------------6--6--7--||
A||--3-----------3-----------1------------4--4--7--||
E|--1------------------------------------------5--|/
[BRIDGE]
D5 F5
e/|--------------------------------------------------------------|
B||----------------10-----------------------------10-------------|
G||--7--10--9--10------10--9--10-------10--9--10------10--9--10--|
D||--------------------------------10----------------------------|
A||--------------------------------------------------------------|
E|--------------------------------------------------------------|
C5 Bb5 A5
e/|--------------------------------------------------------------|
B||-----------------8--------------------------------------------|
G||-----10--9--10------10--9--10-------10--9--10------10--9--10--|
D||-10------------------------------8--------------7-------------|
A||--------------------------------------------------------------|
E|--------------------------------------------------------------|
D5 F5
e/|--------------------------------------------------------------|
B||----------------10-----------------------------10-------------|
G||--7--10--9--10------10--9--10-------10--9--10------10--9--10--|
D||--------------------------------10----------------------------|
A||--------------------------------------------------------------|
E|--------------------------------------------------------------|
C5 Bb5 A5
e/|--------------------------------------------------------------|
B||-----------------8--------------------------------------------||
G||-----10--9--10------10--9--10-------10--9--10------10--9--7~~-||
D||-10------------------------------8--------------7-------------||
A||--------------------------------------------------------------||
E|--------------------------------------------------------------|/

[BRIDGE 2]
Guitars 1 & 3
e/|------------------------------------------------------------------|
B||-----------------------------------------------------------10~~~~-|
G||------------------------------------------------------------------|
D||-----------------------------------------------------------0-2-4--|
A||------------------------------------------------------------------|
E|------------------------------------------------------------------|
| |
|Guitar 2 |
| p.m............................................................ |
e/|------------------------------------------------------------------|
B||------------------------------------------------------------------|
G||-7-7-7-7-7-7-7-7--------------------------------------------------|
D||-7-7-7-7-7-7-7-7-7-7-7-7-7-7-7-7-9-9-9-9-9-9-9-9-8-8-8-8-8-8-8-8--|
A||-5-5-5-5-5-5-5-5-7-7-7-7-7-7-7-7-9-9-9-9-9-9-9-9-8-8-8-8-8-8-8-8--|
E|-----------------5-5-5-5-5-5-5-5-7-7-7-7-7-7-7-7-6-6-6-6-6-6-6-6--|

e/|--------------------------------------------------------/22--|
B||-(10)~~~~~~~~~~~~~~~~~~~~~~~~~~~~~~~~~~~~~~~~~~~-------------||
G||-------------------------------------------------------------||
D||-0-----------------------------------------------------------||
A||-------------------------------------------------------------||
E|-------------------------------------------------------------|/
| |
| |
| p.m............................................ |
e/|-------------------------------------------------------------|
B||-------------------------------------------------------------||
G||-7-7-7-7-7-7-7-7---------------------------------------------||
D||-7-7-7-7-7-7-7-7-7-7-7-7-7-7-7-7-9-9-9-9-9-9-9-9-10----------||
A||-5-5-5-5-5-5-5-5-7-7-7-7-7-7-7-7-9-9-9-9-9-9-9-9-10----------||
E|-----------------5-5-5-5-5-5-5-5-7-7-7-7-7-7-7-7--8----------|/






4. I ' m W i t h Y o u


Signs:
H-Hamer on
P-Pull Off
~-Vibrato
S-Slide
^-Bend
P^-Pre-Bend

(Intro)
(Guitar 1-Jesse-Acousic-Clean)Riff A
|-0-0--0-0--0-0---------------0-0--0-0--0-0|
|-0-0--2-2--5-5---------------0-0--2-2--5-5|
|-2-2--4-4--7-7---------------2-2--4-4--7-7|(Repeat As Needed)
|-2-2--4-4--7-7---------------2-2--4-4--7-7|
|-0-0--0-0--0-0---------------0-0--0-0--0-0|
|-0-0--0-0--0-0---------------0-0--0-0--0-0|
Note: Dont Lift Your Fingers off the
to get the Scraping sound

(Guitar 2-Evan-Semi-Hallow-Light Dist.)Riff B
|--------------------------------------------------------------------|
|--------------------(dont pick the slides )--(dont pick the slide)--|
|-11H12p11----11h12p11s9s11-----------------11h12s14-----------------|
|--------------------------------------------------------------------|
|--------------------------------------------------------------------|
|--------------------------------------------------------------------|
(Verse)
(Guitar 2 Out)
(Guitar 1) Riff C
|-0-0--0-0--0-0-0-0|
|-0-0--2-2--5-5-5-5|
|-2-2--4-4--7-7-7-7|(Repeat 4 Times)
|-2-2--4-4--7-7-7-7|
|-0-0--0-0--0-0-0-0|(Note Listen for the Frist Hammer Pull Off from Riff B)
|-0-0--0-0--0-0-0-0|

(Guitar 2) Riff D
|----------------------------------0--|
|----------------------------------0--|
|-12--11--9--7----9----5~---2---------|
|----------------------------------2--|
|----------------------------------0--|
|----------------------------------0--|
(Chorus)

(Guitar 1)
|-0-0--0-0--0-0-0-0|
|-0-0--2-2--5-5-5-5|
|-2-2--4-4--7-7-7-7|
|-2-2--4-4--7-7-7-7|
|-0-0--0-0--0-0-0-0|
|-0-0--0-0--0-0-0-0|

(Guitar 2)
|-0-0--0-0--0-0--------|
|-0-0--2-2--5-5--------|
|-2-2--4-4--7-7--------|
|-2-2--4-4--7-7-----0--|
|-0-0--0-0--0-0---0----|
|-0-0--0-0--0-0-0------|

Verse 2
Guitar 1 Plays riff C

(Guitar 2)
|----------------------------------|
|----------------------------------|
|----------------------------------|
|----------------------------------|
|P^12---10---P^14-----10-----------|
|----------------------------------|

(Guitar 2)
|---------------------|
|---------------------|
|---8h9p8--7--5-------|
|---------------------|
|---------------------|
|---------------------|

(Guitar 2) Riff D
|----------------------------------0--|
|----------------------------------0--|
|-12--11--9--7----9----5~---2---------|
|----------------------------------2--|
|----------------------------------0--|
|----------------------------------0--|

Chrous 2
(Guitar 1)
|-0-0--0-0--0-0-0-0|
|-0-0--2-2--5-5-5-5|
|-2-2--4-4--7-7-7-7|
|-2-2--4-4--7-7-7-7|
|-0-0--0-0--0-0-0-0|
|-0-0--0-0--0-0-0-0|

(Guitar 2)
|-0-0--0-0--0-0--------|
|-0-0--2-2--5-5--------|
|-2-2--4-4--7-7--------|
|-2-2--4-4--7-7-----0--|
|-0-0--0-0--0-0---0----|
|-0-0--0-0--0-0-0------|

Bridge
(Guitar 2-lighty Dist.)
|-0-0-0-0--0-0-0-0|
|-2-2-2-2--5-5-5-5|
|-2-2-4-4--6-6-7-7|(repeat as needed)
|-0-0-4-4--7-7-7-7|
|-0-0-0-0--0-0-0-0|
|-0-0-0-0--0-0-0-0|

(Guitar 1 Lightly Dist.)
|-0-0-0-0--0-0-0-0|
|-0-0-2-2--5-5-5-5|
|-2-2-4-4--7-7-7-7|
|-2-2-4-4--7-7-7-7|(repeat As needed)
|-0-0-0-0--0-0-0-0|
|-0-0-0-0--0-0-0-0|
Guitar 2 Out
Guitar 1 Clean
(Guitar 1)
|-0-0--0-0--0-0-0-0|
|-0-0--2-2--5-5-5-5|
|-2-2--4-4--7-7-7-7|
|-2-2--4-4--7-7-7-7|
|-0-0--0-0--0-0-0-0|
|-0-0--0-0--0-0-0-0|

(Guitar 2 Heavy Dist.)
|----P.M-----------|
|4-4-4-4-4-4-------|
|2-2-2-2-2-2-------|
|2-2-2-2-2-2-------|
|------------------|
|------------------|
|------------------|

(Guitar 1 Lightly Dist.)
|-0-0--0-0--0-0-0-0|
|-0-0--2-2--5-5-5-5|
|-2-2--4-4--7-7-7-7|
|-2-2--4-4--7-7-7-7|
|-0-0--0-0--0-0-0-0|
|-0-0--0-0--0-0-0-0|

(Guitar 2 Heavy Dist.)
|----P.M-----------|
|4-4-4-4-4-4-------|
|2-2-2-2-2-2-------|
|2-2-2-2-2-2-------|
|------------------|
|------------------|
|------------------|

(Outro)
(Guitar 1 Clean)
|-0-0--0-0--0-0-0-0|
|-0-0--2-2--5-5-5-5|
|-2-2--4-4--7-7-7-7|
|-2-2--4-4--7-7-7-7|
|-0-0--0-0--0-0-0-0|
|-0-0--0-0--0-0-0-0|

(Guitar 2 Lightly Dist.)
|------------|
|------------|
|-11h12p11---|
|------------|
|------------|
|------------|




5. M o b i l e

Tuning - Standard EADGBE
Tabbed by Riki (www.igiavril.tk)
B5 - 799xxx
D5 - x577xx
A5 - 577xxx
E5 - x799xx

A - 002220
Bm - X24432
E - 022100
Fm#- 244222

[Intro:]
Guitar 1 (acoustic) : Bm D A E
Guitar 2 (distorted) B5 D5 A5 E5

[Verse:]
Guitar 1 : Bm D A E

Went back home again, this sucks gotta pack up and leave again
Say goodbye to all my friends can't say when I'll be there again
It's time now to turn around, turn my back on everything
Turn my back on everything

[Chorus:]
Guitar 1 & Guitar 2 : A E Bm Fm#

Everything's changing when I turn around
All out of my control I'm a mobile
Everything's changing when I turn around
All out of my control I'm a mobile

Guitar 1 (acoustic) : Bm D A E 2x

[Verse:]
Guitar 1 : Bm D A E

Start back at this life, stretch myself back into the vibe
I'm wakin' up to say I'm tried, instead of waking up to another TV Guide
It's time now to turn around, turn and walk on this crazy ground
Ohh everything

[Chorus:]
Guitar 1 & Guitar 2 : A E Bm Fm#

Everything's changing when I turn around
All out of my control I'm a mobile
Everything's changing when I turn around
All out of my control I'm a mobile

Bm F#m
I'm a mobile

[Bridge:]

D E D
Hanging from the ceiling, life's a mobile
D E Fm#
Spinning around with mixed feelings, crazy and wild
Fm# E A
And sometimes I wanna scream out loud

Guitar 1: A E Bm F#m
Guitar 2 (distorted):
[Short solo]
e-------------------------------------------10b-10b-10b-10b-9-10p9~~--12p10p9----|
B--314-14-14-14-14-14-14-14-12-9-9-9-9-9-9-----------------------------------10-|
G--314-14-14-14-14-14-14-14-12-9-9-9-9-9-9--------------------------------------|
D--------------------------------------------------------------------------------|
A--------------------------------------------------------------------------------|
E--------------------------------------------------------------------------------|

Guitar 1: A E Bm Fm#

Everything's changing when I turn around
All out of my control
Everything's changing everywhere I go
Out of what I know, yeah yeah yeah

Guitar 1 & Guitar 2 : A E Bm Fm#

La la la la la la, la la
La la la la la la, la la
La la la la la la, la la
La la la la la la

Everything's changing when I turn around
All out of my control I'm a mobile
Everything's changing out of what I know
Everywhere I go I'm a mobile

Bm F#m A
Everywhere I go I'm a mobile




6. U n w a n t e d

Tabbed by Navid Navidb86@hotmail.com
Song name - Unwanted (Live on Radio One) [Same as on the CD]

Tuning - Standard (EADGBE)
E5 - 022xxx || A/C# - 047xxx
C5 - 0355xx || A5 - 577xxx
D5 - 0577xx || Am - x02210
Em - 022000 || A - x02220
C - x32010 ||
D - xx0232 ||

h = hammer on b = bend
/ = slide up r = release bend
= slide down
~ = vibrato


[INTRO]
Guitar 1
**** **** **** ****
e/|--0--------0--------3--------0------------------------|
B||--0--------1--------2--------2------------------------||
G||--0--------0--------3--------2------------------------||
D||--2--------2--------0--------2------------------------||
A||--2--------3--------x--------0------------------------||
E|--0--------x--------x--------x------------------------|/

Guitar 1
**** **** **** **** **** **** **** ****
e/|--0----0----3----0----0----0----3----0----------------|
B||--0----1----2----2----0----1----2----1----------------||
G||--0----0----3----2----0----0----3----2----------------||
D||--2----2----0----2----2----2----0----2----------------||
A||--2----3----x----0----2----3----x----0----------------||
E|--0----x----x----x----0----x----x----x----------------|/
| |
| Guitar 2 distorted |
| |
e/|------------------------------------------------------|
B||------------------------------------------------------||
G||-------5----7--------------5----7---------------------||
D||--2----5----7----7----2----5----7----7----------------||
A||--2----3----5----7----2----3----5----4----------------||
E|--0----0----0----5----0----0----0----0----------------|/

[VERSE 1]
Guitar 1 plays this 10 times
e/|------------------------------------------------------|
B||------------------------------------------------------||
G||-------0--------0--------0----------------------------||
D||--2---------5-5------7-7----------7-------------------||
A||--2---------3-3------5-5------7-7---------------------||
E|--0--0------------------------5-5---------------------|/

Guitar 2 distorted comes in the 5th times
5th time
e/|------------12----------------------------------------|
B||---------------------12-------------------------------|
G||-------------------------------12---------------------|
D||------------------------------------------------------|
A||------------------------------------------------------|
E|------------------------------------------------------|

6th time
e/|-----------12-----------------15----------------------|
B||---------------------12-------------------------------|
G||------------------------------------------------------|
D||------------------------------------------------------|
A||------------------------------------------------------|
E|------------------------------------------------------|

7th and 8th time
** ** ** **
e/|------------------------------------------------------|
B||------------------------------------------------------|
G||-----------5---------7--------------------------------|
D||--2--------5---------7--------7-----------------------|
A||--2--------3---------5--------7-----------------------|
E|--0---------------------------5-----------------------|

9th time
e/|------------------------------------------------------|
B||-------0--------0--------0----------------------------|
G||---------------------------------7--------------------|
D||--2---------5-5------7-7------------------------------|
A||--2---------3-3------5-5------77----------------------|
E|--0--0------------------------55----------------------|

10th time
e/|------------------------------------------------------|
B||-------0--------0--------0----------------------------||
G||------------------------------------------------------||
D||--2---------5-5------7-7------7-7-7-------------------||
A||--2---------3-3------5-5------7-7-7-------------------||
E|--0--0------------------------5-5-5-------------------|/

[CHORUS]
E5/Em C5/C
You don't know me, don't ignore me
D5/D A5/A E5/Em C5/C D5/D A5/A
You don't want me there you just shut me out

E5/Em C5/C
You don't know me, don't ignore me

D5/D A5/A E5/Em C5/C
If you had your way you'd just shut me out

D5/D C5/C E5/Em C5/C D5/D A/C#/Am
Make me go away

Guitar 1
Em C D Am

Guitar 2 distorted
** ** **
e/|------------------------------------------------------|
B||------------------------------------------------------||
G||-------5----7---14-----------------------------------||
D||--2----x----x---x-------------------------------------||
A||--2----3----5---12-----------------------------------||
E|--0---------------------------------------------------|/

[VERSE 2]
Guitar 1 plays the same 8 times
Guitar 2 distorted comes in the 5th times
5th time
e/|------------12----------------------------------------|
B||---------------------12-------------------------------|
G||------------------------------12----------------------|
D||------------------------------------------------------|
A||------------------------------------------------------|
E|------------------------------------------------------|
6th time
e/|-----------12-----------------15----------------------|
B||---------------------12-------------------------------|
G||------------------------------------------------------|
D||------------------------------------------------------|
A||------------------------------------------------------|
E|------------------------------------------------------|
7th and 8th time
** ** ** ** The last time
e/|------------------------------------|----------------|
B||------------------------------------|----------------|
G||-----------5---------7--------------|----------------|
D||--2--------5---------7--------7-----|--7-7-7---------|
A||--2--------3---------5--------7-----|--7-7-7---------|
E|--0---------------------------5-----|--5-5-5---------|

[CHORUS]
E5/Em C5/C
You don't know me, don't ignore me
D5/D A5/A E5/Em C5/C D5/D A5/A
You don't want me there you just shut me out
E5/Em C5/C
You don't know me, don't ignore me
D5/D A5/A E5/Em C5/C
If you had your way you'd just shut me out
D5/D C5/C E5/Em C5/C D5/D A/C#/Am
Make me go away, make me go away

[BRIDGE]
E5 C5 D5 A/C# E5 C5 D5 A/C#
I tried to belong it didn't seem wrong, my head aches
E5 C5 D5 A/C# E5 C5 D5
It's been so long I'll write this song, if that's what it takes

D5 D5 D5


Get this song at amazon.com      Ebay     Ringtones Ringtones  


Learn to play: Songwriting, Piano, Harmonica, Guitar
301 Moved Permanently

Moved Permanently

The document has moved here.

Related Avril Lavigne Tabs

What The Hell tabs
Complicated (live & Cd) tabs
Things Ill Never Say (Live) tabs
When Youre Gone Bass tabs
Forgotten tabs
Mobile tabs
Naked (live) tabs
I`m With You (acoustic) tabs
Anything But Ordinary tabs
Fuel tabs
Girlfriend Bass tabs
Tomorrow tabs
Together tabs
Sk8ter Boi tabs
Things Ill Never Say tabs
Fall To Pieces tabs
Falling Down tabs
Complicated Acoustic tabs
One Of Those Girls tabs
No One Needs To Know tabs


Guitar Tabs




All tabs are property and copyright of their owners. All tabs provided for educational purposes only. Privacy Policy, DMCA