Avril Lavigne

I Dont Give Tabs



More from Avril Lavigne

Avril Lavigne Tabs
Avril Lavigne Chords
Avril Lavigne Bass
Avril Lavigne Lyrics



-------------------------------------------------------------------------
I dont give a damn - Avril Lavigne
-------------------------------------------------------------------------

Tabbed by: Andrew Hedstrom
Email: Hedstrom_korn@hotmail.com

This song is almost for sure correct, but there isnt much guitar to it. it's a good
song but theres not that much guitar to it.

level difficulty: 4 or 6

Tuning:E-A-D-G-B-E

e|------------------------------------------|
B|------------------------------------------|
G|------------------------------------------| then go to part 2 rite away
D|--10-12-10-----------10-12-10-------------|
A|------------13-10--------------13^--11-10-|
E|------------------------------------------|
^ wiggle this 10
Part 2:
e|------------------------------------------------------------|
B|------------------------------------------------------------|
G|------------------------------------------------------------|
D|--10-12-10--------------------------------------------------|
A|-----------13-10---------------13^---11-10------------------|
E|------------------------------------------------------------|
^ wiggle 10 ^give mad bending on 13

Chorus -try playing in Sticcado (stick-ah-doe) a.k.a. short choppy strums.
e|-----------------------------------------|
B|-----------------------------------------| play 2 times,
G|--8-8-8-8-8-8-8-8------------------------| then go to part 2
D|--8-8-8-8-8-8-8-8-6-6-6-6-6-8-8-8-8-8----|
A|--6-6-6-6-6-6-6-6-6-6-6-6-6-8-8-8-8-8----|
E|------------------4-4-4-4-4-6-6-6-6-6----|

Chorus part 2 "im not gonna cry"
e|------------------------------------|
B|------------------------------------|
G|--5-5-5-5-5-5-5-5-------------------|


Get this song at amazon.com      Ebay     Ringtones Ringtones  


Learn to play: Songwriting, Piano, Harmonica, Guitar
301 Moved Permanently

Moved Permanently

The document has moved here.

Related Avril Lavigne Tabs

Slipped Away tabs
Headset Bass tabs
Fall To Pieces tabs
My World tabs
Nobodys Fool tabs
Mobile Solo tabs
Complicated. tabs
Falling Down Bass tabs
Nobody's Fool (acoustic) tabs
Naked Acoustic tabs
Sk8a Boi tabs
Alone tabs
Innocence tabs
Get Over It tabs
Girlfriend Bass tabs
What The Hell tabs
I`m With You (acoustic) tabs
Complicated Live tabs
Unwanted (live) tabs
Naked tabs


Guitar Tabs




All tabs are property and copyright of their owners. All tabs provided for educational purposes only. Privacy Policy, DMCA