Avril Lavigne

I'm With You (live) Tabs



More from Avril Lavigne

Avril Lavigne Tabs
Avril Lavigne Chords
Avril Lavigne Bass
Avril Lavigne Lyrics



Artist - Avril Lavigne
Song name - Iím With You (Live on Radio One)
Album - Let Go

Tuning - Standard (EADGBE)

Bm - x24432 || Em - 022000
F#m - 244222 || A - x02220
D - xx0232 || D5 Ė xx023x
Asus2 Ė xx022x ||

= Slide down = natural harmonic on specified fret
/ = Slide up pm = palm mute
~ = vibrato
b = bend
x = scratch


[INTRO]
Guitar 1 plays this 4 times
** ** ** **
e/|--0--------2--------0--------0------------------------|
B||--0--------3--------2--------2------------------------||
G||--2--------4--------3--------3------------------------||
D||--2--------4--------0--------0------------------------||
A||--0--------2------------------------------------------||
E|-----------x------------------------------------------|/
| |
| Guitar 2 |
| |
e/|--0---------------------------------------------------|
B||--0---------------------------------------------------|
G||--2--------------------------b6~-4-6~~----------------|
D||--2---------------------------------------------------|
A||--0---------------------------------------------------|
E|------------------------------------------------------|
| |
| Guitar 2 |
| |
e/|------------------------------------------------------|
B||------------------------------------------------------|
G||-----------------------------6/9~~~-------------------|
D||------------------------------------------------------|
A||------------------------------------------------------|
E|------------------------------------------------------|
| |
| Guitar 2 |
| |
e/|------------------------------------------------------|
B||------------------------------------------------------|
G||-----------------------------b6~-4-6~~----------------|
D||------------------------------------------------------|
A||------------------------------------------------------|
E|------------------------------------------------------|
| |
| Guitar 2 |
| |
e/|------------------------------------------------------|
B||------------------------------------------------------||
G||-----------------------------4~-----------------------||
D||------------------------------------------------------||
A||------------------------------------------------------||
E|------------------------------------------------------|/


[VERSE 1]
Guitar 1
** *** ** *** ** *** ** ***
e/|------------------------------------------------------|
B||------------------------------------------------------||
G||------------------------------------------------------||
D||-----------7------------------7-----------------------||
A||--4--------5--------4---------5-----------------------||
E|--2-----------------2---------------------------------|/
|pm................................... |
| Guitar 2 |
| |
e/|--------------------------------------------------|
B||--------------------------------------------------|
G||------------------------------------------|
D||--------------------------------------------------|
A||------------------------------------------------------|
E|------------------------------------------------------|

Guitar 1
** *** ** *** ** *** ** ***
e/|------------------------------------------------------|
B||------------------------------------------------------||
G||------------------------------------------------------||
D||-----------7------------------7-----------------------||
A||--4--------5--------4---------5-----------------------||
E|--2-----------------2---------------------------------|/
|pm................................... |
| Guitar 2 |
| |
e/|--------------------------------------------------|
B||-------------------7~-----------------------------||
G||-----------------------9-7------------------------||
D||--------------------------------------------------||
A||--------------------------------------------------||
E|--------------------------------------------------|/


[PRE CHORUS]

Guitar 1

e/|--0------------3------------0------------3------------|
B||--0------------2------------0------------2------------||
G||--1------------3------------1------------3------------||
D||--2------------0------------2------------0------------||
A||--2-------------------------2-------------------------||
E|------------------------------------------------------|/
| |
| Guitar 2 |
| |
e/|--0------------3------------0------------3------------|
B||--0------------2------------0------------2------------||
G||--1------------3------------1------------3------------||
D||--2------------0------------2------------0------------||
A||--2-------------------------2-------------------------||
E|------------------------------------------------------|/


[CHORUS]

Guitar 1 plays this twice
*** *** *** ***
e/|--0-----------2-----------3-----------3---------------|
B||--2-----------3-----------2-----------2---------------|
G||--2-----------4-----------3-----------3---------------|
D||--2-----------4-----------0-----------0---------------|
A||--0-----------2---------------------------------------|
E|------------------------------------------------------|
| |
| Guitar 2 plays this twice |
| |
e/|------------------------------------------------------|
B||------6-----------7-----------7-----------7-----------|
G||----5---5-------7---7-------5---5-------5---5---------|
D||--7-----------9-----------7-----------7---------------|
A||------------------------------------------------------|
E|------------------------------------------------------|

then this
Guitar 1
*** *** *** ***
e/|--2-----------0-----------3-----------3---------------|
B||--2-----------0-----------2-----------2---------------||
G||--2-----------1-----------3-----------3---------------||
D||--4-----------2-----------0-----------0---------------||
A||--4-----------2---------------------------------------||
E|--2---------------------------------------------------|/
| |
| Guitar 2 |
| |
e/|------------------------------------------------------|
B||----5-----------7------------5----------5-------------||
G||--6-----------7-----------7-----------7---------------||
D||------------------------------------------------------||
A||------------------------------------------------------||
E|------------------------------------------------------|/

then they play the same
Guitar 1 and 2 Guitar 2
e/|--2------------0------------3----------------|--------|
B||--2------------0------------2----------------|--------||
G||--2------------1------------3----------------|--7/12--||
D||--4------------2------------0----------------|--------||
A||--4------------2-----------------------------|--------||
E|--2------------------------------------------|--------|/

and the ending of the chorus
Guitar 1
** * ** ** * ** * ** ** *
e/|--2------------3------------2------------3------------|
B||--2------------2------------2------------2------------||
G||--2------------3------------2------------3------------||
D||--4------------0------------4------------0------------||
A||--4-------------------------4-------------------------||
E|--2-------------------------2-------------------------|/
| |
| Guitar 2 |
| |
e/|------------------------------------7~---7----3-------|
B||--8~~~~--------7--5~--7-5/8---------8~------------5~--||
G||------------------------------------------------------||
D||------------------------------------------------------||
A||------------------------------------------------------||
E|------------------------------------------------------|/


[VERSE 2]

Guitar 1 same as before twice

Guitar 2 plays this twice
* ** ** ** * ** ** ** * ** ** ** * ** ** **
e/|--2------------2------------2------------2------------|
B||--2------------3------------2------------3------------||
G||--2------------2------------2------------2------------||
D||--4------------0------------4------------0------------||
A||--4-------------------------4-------------------------||
E|--2-------------------------2-------------------------|/


[PRE CHORUS]

Guitar 1

e/|--0------------3------------0------------3------------|
B||--0------------2------------0------------2------------||
G||--1------------3------------1------------3------------||
D||--2------------0------------2------------0------------||
A||--2-------------------------2-------------------------||
E|------------------------------------------------------|/
| |
| Guitar 2 |
| |
e/|-----------------------------------------3------------|
B||---------------------2-------------------2------------||
G||--------------------3--------------------3------------||
D||-----------------0-----------------------0------------||
A||------------------------------------------------------||
E|------------------------------------------------------|/


[CHORUS]

Itís the same chorus once again


[BRIDGE]

Guitar 1 and Guitar 2
* ** * ** * ** * **
e/|--0------------2------------0------------2------------|
B||--0------------3------------0------------3------------|
G||--1------------4------------1------------4------------|
D||--2------------4------------2------------4------------|
A||--2------------2------------2------------2------------|
E|---------------x-------------------------x------------|

e/|--2-2-2-2-2-2-2-2---5-5-5---4-4-4---7-----------------|
B||--3-3-3-3-3-3-3-3---5-5-5---5-5-5---7-----------------||
G||--4-4-4-4-4-4-4-4---7-7-7---6-6-6---9-----------------||
D||--4-4-4-4-4-4-4-4---7-7-7---6-6-6---9-----------------||
A||--2-2-2-2-2-2-2-2---5-5-5---4-4-4---7-----------------||
E|--x-x-x-x-x-x-x-x---5-5-5---4-4-4---7-----------------|/

Guitar 1 repeats this three times
[Itís a damn cold night......]
e/|------------------------------------------------------|
B||------------------------------------------------------|
G||------------------------------------------------------|
D||--------------------------7--7-7--7--7-7--------------|
A||--4--4-4--4--4-4----------5--5-5--5--5-5--------------|
E|--2--2-2--2--2-2--------------------------------------|
|pm.............. |
| Guitar 2 |
| |
e/|--5---------------------------------------------------|
B||--5---------------------------------------------------|
G||--6---------------------------------------------------|
D||--7---------------------------------------------------|
A||--7---------------------------------------------------|
E|--5---------------------------------------------------|

Guitar 1

e/|--2-----------0-----------3-----------3-3-3-3---------|
B||--2-----------0-----------2-----------2-2-2-2---------||
G||--2-----------1-----------3-----------3-3-3-3---------||
D||--4-----------2-----------0-----------0-0-0-0---------||
A||--4-----------2---------------------------------------||
E|--2---------------------------------------------------|/
| |
| Guitar 2 |
| |
e/|--2-----------0-----------3-----------3-3-3-3---------|
B||--2-----------0-----------2-----------2-2-2-2---------||
G||--2-----------1-----------3-----------3-3-3-3---------||
D||--4-----------2-----------0-----------0-0-0-0---------||
A||--4-----------2---------------------------------------||
E|--2---------------------------------------------------|/


[CHORUS]
play this three times
Guitar 1
*** *** *** ***
e/|--2-----------0-----------3-----------3---------------|
B||--2-----------0-----------2-----------2---------------||
G||--2-----------1-----------3-----------3---------------||
D||--4-----------2-----------0-----------0---------------||
A||--4-----------2---------------------------------------||
E|--2---------------------------------------------------|/
| |
| Guitar 2 |
| ** ** ** ** |
e/|--5------------7------------5---------5---------------|
B||--5------------7------------5---------5---------------||
G||--6------------7------------7---------7---------------||
D||--7------------9------------7---------7---------------||
A||--7------------9------------5---------5---------------||
E|--5------------7------------5---------5---------------|/

then this
Guitar 1

e/|--2-----------0-----------3-----------3-3-3-3---------|
B||--2-----------0-----------2-----------2-2-2-2---------||
G||--2-----------1-----------3-----------3-3-3-3---------||
D||--4-----------2-----------0-----------0-0-0-0---------||
A||--4-----------2---------------------------------------||
E|--2---------------------------------------------------|/
| |
| Guitar 2 |
| |
e/|--2-----------0-----------3-----------3-3-3-3---------|
B||--2-----------0-----------2-----------2-2-2-2---------||
G||--2-----------1-----------3-----------3-3-3-3---------||
D||--4-----------2-----------0-----------0-0-0-0---------||
A||--4-----------2---------------------------------------||
E|--2---------------------------------------------------|/


then the same thing all over again but it is played
a little differently

and it ends like this


Guitar 1
** *** ** *** ** *** ** ***
e/|------------------------------------------------------|
B||------------------------------------------------------||
G||------------------------------------------------------||
D||-----------7------------------7-----------------------||
A||--4--------5--------4---------5-----------------------||
E|--2-----------------2---------------------------------|/
|pm................................... |
| |
| Guitar 2 |
| |
e/|------------------------------------------------------|
B||-----------------------------------12~~~-12-----------||
G||--12~~~~~------11-9~--9/11~~-------12~~~------12------||
D||--------------------------------------------------12~-||
A||------------------------------------------------------||
E|------------------------------------------------------|/

e/|-----3------------------------------------------------|
B||----2-------------------------------------------------||
G||---3--------------------------------------------------||
D||--0---------------------------------------------------||
A||------------------------------------------------------||
E|------------------------------------------------------|/


Get this song at amazon.com      Ebay     Ringtones Ringtones  


Learn to play: Songwriting, Piano, Harmonica, Guitar
More Avril Lavigne lyrics available at Muzikum

Related Avril Lavigne Tabs

Iím With You tabs
Naked tabs
Dont Tell Me Acoustic tabs
Anything But Ordinary tabs
Sk8a Boi tabs
Mobile Acoustic tabs
Why tabs
Two Rivers tabs
I Dont Give Live tabs
Fuel tabs
Complicated Acoustic tabs
Best Damn Thing tabs
Fall To Pieces tabs
When Youre Gone tabs
Touch The Sky tabs
Runaway tabs
Nobody's Fool tabs
Complicated tabs
Contagious Bass tabs
My World2 tabs


Guitar Tabs









All tabs are property and copyright of their owners. All tabs provided for educational purposes only. Privacy Policy, DMCA