Avril Lavigne

He Wasn Tabs



More from Avril Lavigne

Avril Lavigne Tabs
Avril Lavigne Chords
Avril Lavigne Bass
Avril Lavigne Lyrics



Artist: Avril Lavigne
Title: He Wasn’t
Album: Under My Skin
Guitarist: Avril, Evan
Tabbed By BurningPiano

This Is The Best Song Off The New Album and nobody’s tabbed it so…….
Also not an easy song to tab but here it is……
(….): palm mute
xxxx: scratch

Verse: ‘ There’s not much goin’ on today’
G] -12---------------12--------------10--------------10-----------------
D] -12--12-12-12-12--12-12-12-12-12--10-10-10-10-10--10-10-10-10-10-----
A] -10--12-12-12-12--10-12-12-12-12--8--10-10-10-10--8--10-10-10-10-----
E] -----10-10-10-10-----10-10-10-10-----8--8--8--8------8--8--8--8------

Verse add on: ‘ Monday’s comin the day I hate’
G] -10-10-10-10-10-(10-10-10)---9--9--9--9--9--x-x-x-------
D] -10-10-10-10-10-(10-10-10)---9--9--9--9--9--x-x-x-------
A] -8--8--8--8--8--(8--8--8)----7--7--7--7--7--x-x-x-------

Bridge 1: ‘Sit on the bed alone Staring at the phone’
G] --------------
D] -3--2--3--2---
A] -3--2--3--2---
E] -1--0--1--0---

Fill 1 (comes just before the start of the first chorus):
G] -11-12-13-14-14---
D] -9--10-11-12-12---

Chorus: 'He Wasn’t what I wanted what I thought no'
G] -7777777777777777------------------3-7777777777777777----------------------
D] -7777777777777777-5555555555555555-5-7777777777777777-5555555555555555-----
A] -5555555555555555-5555555555555555-5-5555555555555555-5555555555555555-----
E] ------------------3333333333333333--------------------3333333333333333-----

Break 1: ‘ hey hey hey hey’
G] -(777777777777777)-57-(7777777777777777)---------
D] -(777777777777777)-57-(7777777777777777)---------
A] -(555555555555555)-35-(5555555555555555)---------

Fill 2 (just before the start of the second chorus):
D] -x-x--
A] -x-x--
E] -x-x--

Bridge 2: ‘ na na na na na, we’ve all got choices….’
G] -5---7------9-99-5--(----)----
D] -5-2-7-5-55-9-99-5--(----)----
A] -3-2-5-5-55-7-77-3--(-X4-)----
E] ---0---3-33---------(----)----

Break 2: ‘uh ah, uh uh uh uh uh ah’
G] -(77)-77-(77)-7----------------(77)-77-(77)-7------------------
D] -(77)-77-(77)-7-(55)-55-(55)-5-(77)-77-(77)-7-(55)-55-(55)-5---
A] -(55)-55-(55)-5-(55)-55-(55)-5-(55)-55-(55)-5-(55)-55-(55)-5---
E] ----------------(33)-33-(33)-3----------------(33)-33-(33)-3---

Song Structure:
Verse x 4 and a half
Verse add on
Bridge 1
Fill 1
Chorus
Break 1
Verse x 3 and a half
Verse add on
Bridge 1
Fill 2
Chorus
Break 2
Bridge 2
Bridge 1 (palm muted)
Chorus (palm mute first bit) x 3
Bridge 2

It’s not as complicated as that structure, it’s easy enough to pick up, Enjoy ;)


Get this song at amazon.com      Ebay     Ringtones Ringtones  


Learn to play: Songwriting, Piano, Harmonica, Guitar
More Avril Lavigne lyrics available at Muzikum

Related Avril Lavigne Tabs

Together tabs
Knockin On Heavens Door tabs
Falling Down Bass tabs
I'm With You tabs
Unwanted (live) tabs
Things I'll Never Say! tabs
Sk8ter Boi2 tabs
Take Me Away Acoustic tabs
Im With You tabs
He Wasnt Live tabs
Im With You Intro tabs
Not The Only One Bass tabs
Mobile tabs
Things I'll Never Say tabs
Mobile Acoustic tabs
Im With You tabs
Freak Out tabs
Complicated tabs
I Always Get What I Want tabs
Innocence tabs


Guitar Tabs









All tabs are property and copyright of their owners. All tabs provided for educational purposes only. Privacy Policy, DMCA