Avril Lavigne

Dont Tell Me Tabs



More from Avril Lavigne

Avril Lavigne Tabs
Avril Lavigne Chords
Avril Lavigne Bass
Avril Lavigne Lyrics

-------------------------------------------------------------------------------
DON'T TELL ME - Avril Lavigne
-------------------------------------------------------------------------------
Tabbed by: Veveboi
Email:veveboi@gmail.com

Tuning: standard eBGDAE
Note: This is a version for the ACOUSTIC guitar.

Intro:

e|-----------12~------------------14~--12~-----------------------------------|
B|---9-10-12----12-10-9~--10-12- (16~)(14~)----------------------------------|
G|---------------------------------------------------------------------------|
D|---------------------------------------------------------------------------| 2x
A|---------------------------------------------------------------------------|
E|---------------------------------------------------------------------------|

Tip: The power chords in this song are played on all strings.

Verse: E5 C#m7 B5 A2sus6
e|--0--0--0-0----0-0-0--0-0-0-0----0--0--0-0----0-0-0--0-0-0-0---------------| }
B|--0--0--0-0----0-0-0--0-0-0-0----0--0--0-0----0-7-7--7-0-0-0---------------| }
G|--9--9--9-9----9-9-9--9-9-9-9----9--9--9-9----9-9-9--9-9-9-9---------------| }3x
D|--9--9--9-9----9-9-9--9-9-9-9----9--9--9-9----9-9-9--9-9-9-9---------------| }
A|--7--7--7-7----x-x-x--x-x-x-x----x--x--x-x----0-0-0--0-0-0-0---------------| }
E|--0--0--0-0----9-9-9--9-9-9-9----7--7--7-7----x-x-x--x-x-x-x---------------| }

Verse- continuing:

E5 C#5 B5 A2sus6
e|--0--0--0-0----0-0-0--0-0-0-0----0--0--0-0----0-2-2--2-0-0-0---------------| }
B|--0--0--0-0----0-0-0--0-0-0-0----0--0--0-0----0-0-0--0-0-0-0---------------| }
G|--9--9--9-9----6-6-6--6-6-6-6----4--4--4-4----2-2-2--2-2-2-2---------------| }1x
D|--9--9--9-9----6-6-6--6-6-6-6----4--4--4-4----2-2-2--2-2-2-2---------------| }
A|--7--7--7-7----4-4-4--4-4-4-4----2--2--2-2----0-0-0--0-0-0-0---------------| }
E|--0--0--0-0----x-x-x--x-x-x-x----x--x--x-x----x-x-x--x-x-x-x---------------|

Pre-chorus

A2sus C#5 C#5/E
e|--0--0--0-0-0-0-0--0-0-0-0----0--0--0-0-0-0-0--0-0-0-0---------------------|
B|--0--0--0-0-0-0-0--0-0-0-0----0--0--0-0-0-0-0--0-0-0-0---------------------|
G|--2--2--2-2-2-2-2--2-2-2-2----6--6--6-6-6-6-6--6-6-6-6---------------------|
D|--2--2--2-2-2-2-2--2-2-2-2----6--6--6-6-6-6-6--6-6-6-6---------------------|
A|--0--0--0-0-0-0-0--0-0-0-0----4--4--4-4-4-4-7--7-7-7-7---------------------|
E|--x--x--x-x-x-x-x--x-x-x-x----x--x--x-x-x-x-x--x-x-x-x---------------------|

A2sus B5 palm mute
e|--0--0--0-0-0-0-0--0-0-0-0----0--0--0-0-0-0-0--4pm4pm4pm4pm----------------|
B|--0--0--0-0-0-0-0--0-0-0-0----0--0--0-0-0-0-0--4pm4pm4pm4pm----------------|
G|--2--2--2-2-2-2-2--2-2-2-2----4--4--4-4-4-4-4--4pm4pm4pm4pm----------------|
D|--2--2--2-2-2-2-2--2-2-2-2----4--4--4-4-4-4-4--4pm4pm4pm4pm----------------|
A|--0--0--0-0-0-0-0--0-0-0-0----2--2--2-2-2-2-2--4pm4pm4pm4pm----------------|
E|--x--x--x-x-x-x-x--x-x-x-x----x--x--x-x-x-x-x--4pm4pm4pm4pm----------------|

CHORUS

C#5 A2sus E5 E5/Eb
e|-(0)(0)(0)(0)--0-0-0--0-0-0-0----0---0--0-0----0-0-0--0-0-0-0--------------| }
B|--0--0--0-0----0-0-0--0-0-0-0----0---0--0-0----0-0-0--0-0-0-0--------------| }
G|--6--6--6-6----2-2-2--2-2-2-2----9---9--9-9----9-9-9--9-9-9-9--------------| } 3x
D|--6--6--6-6----2-2-2--2-2-2-2----9---9--9-9----9-9-9--9-9-9-9--------------| }
A|--4--4--4-4----0-0-0--0-0-0-0----7---7--7-7----6-6-6--6-6-6-6--------------| }
E|--x--x--x-x----x-x-x--x-x-x-x----x---x--x-x----x-x-x--x-x-x-x--------------| }

CHORUS- ending

A2sus/F# B5
e|--0--0--0-0-0-0-0--0-0-0-0----0--0--0-0------------------------------------|
B|--0--0--0-0-0-0-0--0-0-0-0----0--0--0-0------------------------------------|
G|--2--2--2-2-2-2-2--2-2-2-2----4--4--4-4------------------------------------|
D|--2--2--2-2-2-2-2--2-2-2-2----4--4--4-4------------------------------------|
A|--0--0--0-0-0-0-0--0-0-0-0----2--2--2-2------------------------------------|
E|--2--2--2-2-2-2-2--2-2-2-2----x--x--x-x------------------------------------|

RIFF

E5 E/Eb C#5 B5
e|--00----00----00----00-----------------------------------------------------|
B|--00----00----00----00-----------------------------------------------------|
G|--99----99----66----44-----------------------------------------------------|
D|--99----99----66----44-----------------------------------------------------|
A|--77----66----44----22-----------------------------------------------------|
E|--00----xx----xx----xx-----------------------------------------------------|

Verse: E5 C#m7 B5 A2sus6
e|--0--0--0-0----0-0-0--0-0-0-0----0--0--0-0----0-0-0--0-0-0-0---------------| }
B|--0--0--0-0----0-0-0--0-0-0-0----0--0--0-0----0-7-7--7-0-0-0---------------| }
G|--9--9--9-9----9-9-9--9-9-9-9----9--9--9-9----9-9-9--9-9-9-9---------------| }3x
D|--9--9--9-9----9-9-9--9-9-9-9----9--9--9-9----9-9-9--9-9-9-9---------------| }
A|--7--7--7-7----x-x-x--x-x-x-x----x--x--x-x----0-0-0--0-0-0-0---------------| }
E|--0--0--0-0----9-9-9--9-9-9-9----7--7--7-7----x-x-x--x-x-x-x---------------| }

Verse- continuing:

E5 C#5 B5 A2sus6
e|--0--0--0-0----0-0-0--0-0-0-0----0--0--0-0----0-2-2--2-0-0-0---------------| }
B|--0--0--0-0----0-0-0--0-0-0-0----0--0--0-0----0-0-0--0-0-0-0---------------| }
G|--9--9--9-9----6-6-6--6-6-6-6----4--4--4-4----2-2-2--2-2-2-2---------------| }1x
D|--9--9--9-9----6-6-6--6-6-6-6----4--4--4-4----2-2-2--2-2-2-2---------------| }
A|--7--7--7-7----4-4-4--4-4-4-4----2--2--2-2----0-0-0--0-0-0-0---------------| }
E|--0--0--0-0----x-x-x--x-x-x-x----x--x--x-x----x-x-x--x-x-x-x---------------|

Pre-chorus

A2sus C#5 C#5/E
e|--0--0--0-0-0-0-0--0-0-0-0----0--0--0-0-0-0-0--0-0-0-0---------------------|
B|--0--0--0-0-0-0-0--0-0-0-0----0--0--0-0-0-0-0--0-0-0-0---------------------|
G|--2--2--2-2-2-2-2--2-2-2-2----6--6--6-6-6-6-6--6-6-6-6---------------------|
D|--2--2--2-2-2-2-2--2-2-2-2----6--6--6-6-6-6-6--6-6-6-6---------------------|
A|--0--0--0-0-0-0-0--0-0-0-0----4--4--4-4-4-4-7--7-7-7-7---------------------|
E|--x--x--x-x-x-x-x--x-x-x-x----x--x--x-x-x-x-x--x-x-x-x---------------------|

A2sus B5 palm mute
e|--0--0--0-0-0-0-0--0-0-0-0----0--0--0-0-0-0-0--4pm4pm4pm4pm----------------|
B|--0--0--0-0-0-0-0--0-0-0-0----0--0--0-0-0-0-0--4pm4pm4pm4pm----------------|
G|--2--2--2-2-2-2-2--2-2-2-2----4--4--4-4-4-4-4--4pm4pm4pm4pm----------------|
D|--2--2--2-2-2-2-2--2-2-2-2----4--4--4-4-4-4-4--4pm4pm4pm4pm----------------|
A|--0--0--0-0-0-0-0--0-0-0-0----2--2--2-2-2-2-2--4pm4pm4pm4pm----------------|
E|--x--x--x-x-x-x-x--x-x-x-x----x--x--x-x-x-x-x--4pm4pm4pm4pm----------------|

CHORUS

C#5 A2sus E5 E5/Eb
e|-(0)(0)(0)(0)--0-0-0--0-0-0-0----0---0--0-0----0-0-0--0-0-0-0--------------| }
B|--0--0--0-0----0-0-0--0-0-0-0----0---0--0-0----0-0-0--0-0-0-0--------------| }
G|--6--6--6-6----2-2-2--2-2-2-2----9---9--9-9----9-9-9--9-9-9-9--------------| } 3x
D|--6--6--6-6----2-2-2--2-2-2-2----9---9--9-9----9-9-9--9-9-9-9--------------| }
A|--4--4--4-4----0-0-0--0-0-0-0----7---7--7-7----6-6-6--6-6-6-6--------------| }
E|--x--x--x-x----x-x-x--x-x-x-x----x---x--x-x----x-x-x--x-x-x-x--------------| }

CHORUS- ending

A2sus/F# B5
e|--0--0--0-0-0-0-0--0-0-0-0----0--0--0-0------------------------------------|
B|--0--0--0-0-0-0-0--0-0-0-0----0--0--0-0------------------------------------|
G|--2--2--2-2-2-2-2--2-2-2-2----4--4--4-4------------------------------------|
D|--2--2--2-2-2-2-2--2-2-2-2----4--4--4-4------------------------------------|
A|--0--0--0-0-0-0-0--0-0-0-0----2--2--2-2------------------------------------|
E|--2--2--2-2-2-2-2--2-2-2-2----x--x--x-x------------------------------------|

RIFF

E5 E/Eb C#5 B5
e|--00----00----00----00-----------------------------------------------------|
B|--00----00----00----00-----------------------------------------------------|
G|--99----99----66----44-----------------------------------------------------|
D|--99----99----66----44-----------------------------------------------------|
A|--77----66----44----22-----------------------------------------------------|
E|--00----xx----xx----xx-----------------------------------------------------|


BRIDGE

A5/F# E5 F#5 A5
e|--x--x--x-x-xx----x--x--x-x-xx----x--x--x-x-xx----x-x-x-x------------------|
B|--x--x--x-x-xx----x--x--x-x-xx----x--x--x-x-xx----x-x-x-x------------------|
G|--2--2--2-2-22----x--x--x-x-xx----x--x--x-x-xx----2-2-2-2------------------|
D|--2--2--2-2-22----2--2--2-2-22----4--4--4-4-44----2-2-2-2------------------|
A|--0--0--0-0-00----2--2--2-2-22----4--4--4-4-44----0-0-0-0------------------|
E|--2--2--2-2-22----0--0--0-0-00----2--2--2-2-22----x-x-x-x------------------|

RIFF2

B5 C#5 Eb5 E5
e|--x----x----x----x---------------------------------------------------------|
B|--x----x----x----x---------------------------------------------------------|
G|--4----6----8----9---------------------------------------------------------|
D|--4----6----8----9---------------------------------------------------------|
A|--2----4----6----7---------------------------------------------------------|
E|--x----x----x----x---------------------------------------------------------|

CHORUS

C#m E B2sus
e|--4--------------------------x-x-0---0--0-0----2-2-2--2-2-2-2--------------| }
B|--5--------------------------x-x-0---0--0-0----2-2-2--2-2-2-2--------------| }
G|--6--------------------------x-x-1---1--1-1----4-4-4--4-4-4-4--------------| } 3x (FIRST LINE CHORDLESS)
D|--6--------------------------x-x-2---2--2-2----4-4-4--4-4-4-4--------------| }
A|--4--------------------------x-x-2---2--2-2----2-2-2--2-2-2-2--------------| }
E|--x--------------------------x-x-0-0-0--0-0----x-x-x--x-x-x-x--------------| }

CHORUS- ending

A2sus B5
e|--0--0--0-0-0-0-0--0-0-0-0----0--0--0-0------------------------------------|
B|--0--0--0-0-0-0-0--0-0-0-0----0--0--0-0------------------------------------|
G|--2--2--2-2-2-2-2--2-2-2-2----4--4--4-4------------------------------------|
D|--2--2--2-2-2-2-2--2-2-2-2----4--4--4-4------------------------------------|
A|--0--0--0-0-0-0-0--0-0-0-0----2--2--2-2------------------------------------|
E|--x--x--x-x-x-x-x--x-x-x-x----x--x--x-x------------------------------------|



| / slide up | pm palm mute
| slide down
| h hammer-on
| p pull-off
| ~ vibrato
| + harmonic
| x Mute note
===============================================================================



Get this song at amazon.com      Ebay     Ringtones Ringtones  


Learn to play: Songwriting, Piano, Harmonica, Guitar
Also available at Muzikum: Avril Lavigne - Don't tell me lyrics

Related Avril Lavigne Tabs

Complicated (riff) tabs
Naked tabs
Unwanted (live) tabs
I Dont Have To Try tabs
Nobodys Fool tabs
Take Me Away Live tabs
Not The Only One Bass tabs
Why tabs
No One Needs To Know tabs
Sk8er Boi3 tabs
I Don Give A Dam tabs
Nobodys Home (acoustic) tabs
Fall To Pieces tabs
Best Dman Thing tabs
Hot tabs
Iím With You tabs
Don Tell Me tabs
Innocence tabs
Naked (live) tabs
I Dont Give Live tabs


Guitar Tabs









All tabs are property and copyright of their owners. All tabs provided for educational purposes only. Privacy Policy, DMCA