Avril Lavigne

Don Tell Me Tabs



More from Avril Lavigne

Avril Lavigne Tabs
Avril Lavigne Chords
Avril Lavigne Bass
Avril Lavigne Lyrics



Artist: Avril Lavigne
Title: Don't Tell Me
Album: Under My Skin (2004)
Tuning: Standard
Transcribed by: Saz (xsazx2001)
Email: madsaz@hotmail.com
Thanks to: Sarz & Amy Luv ya
Extra: Email me with questions and comments, I found that
on the net there were some pretty bad tabs for this song so heres
my version.

Intro/Verse part A:
e|-0-0-0-0--0-0-0-0--------------0-0-0-0-|
B|-0-0-0-0--0-0-0-0-(4)(4)(4)(4)-0-0-0-0-|
G|-1-1-1-1--2-2-2-2--4--4--4--4--2-2-2-2-|
D|-2-2-2-2--2-2-2-2--4--4--4--4--2-2-2-2-|
A|-2-2-2-2--0-0-0-0--2--2--2--2--0-0-0-0-|
E|-0-0-0-0-------------------------------|

Part B Did I not tell you....
e|-0-0-0-0-0-0-0-0--0-0-0-0-0-0-0-0-|
B|-0-0-0-0-0-0-0-0--0-0-0-0-0-0-0-0-|
G|-1-1-1-1-1-1-1-1--2-2-2-2-2-2-2-2-|
D|-2-2-2-2-2-2-2-2--2-2-2-2-2-2-2-2-|
A|-2-2-2-2-2-2-2-2--2-2-2-2-2-2-2-2-|
E|-0-0-0-0-0-0-0-0--0-0-0-0-0-0-0-0-|

Part C Gives it all away...
e|-0-0-0-0-0-0-0-0----------------------|
B|-0-0-0-0-0-0-0-0-(4)(4)(4)(4)---------|
G|-1-1-1-1-1-1-1-1--4--4--4--4--x-x-x-x-|
D|-2-2-2-2-2-2-2-2--4--4--4--4--x-x-x-x-|
A|-2-2-2-2-2-2-2-2--2--2--2--2--x-x-x-x-|
E|-0-0-0-0-0-0-0-0----------------------|

Part A Chorus:
e|-0-0-0-0--0-0-0-0--0-0-0-0--------------|
B|-0-0-0-0--0-0-0-0--0-0-0-0-(4)(4)(4)(4)-|
G|-1-1-1-1--2-2-2-2--1-1-1-1--4--4--4--4--|
D|-2-2-2-2--2-2-2-2--2-2-2-2--4--4--4--4--|
A|-2-2-2-2--2-2-2-2--2-2-2-2--2--2--2--2--|
E|-0-0-0-0--0-0-0-0--0-0-0-0--------------|

Part B You're better off that way...
e|------------------------------------------|
B|-2-2-2-2-2-2-2-2-(4)(4)(4)(4)(4)(4)(4)(4)-|
G|-2-2-2-2-2-2-2-2--4--4--4--4--4--4--4--4--|
D|-2-2-2-2-2-2-2-2--4--4--4--4--4--4--4--4--|
A|-0-0-0-0-0-0-0-0--2--2--2--2--2--2--2--2--|
E|------------------------------------------|

Verse 2 Part A:
e|-0-0-0-0--0-0-0-0--------------0-0-0-0-|
B|-0-0-0-0--0-0-0-0-(4)(4)(4)(4)-0-0-0-0-|
G|-1-1-1-1--2-2-2-2--4--4--4--4--2-2-2-2-|
D|-2-2-2-2--2-2-2-2--4--4--4--4--2-2-2-2-|
A|-2-2-2-2--0-0-0-0--2--2--2--2--0-0-0-0-|
E|-0-0-0-0-------------------------------|

Part B Did I not tell you....
e|-0-0-0-0-0-0-0-0--0-0-0-0-0-0-0-0-|
B|-0-0-0-0-0-0-0-0--0-0-0-0-0-0-0-0-|
G|-1-1-1-1-1-1-1-1--2-2-2-2-2-2-2-2-|
D|-2-2-2-2-2-2-2-2--2-2-2-2-2-2-2-2-|
A|-2-2-2-2-2-2-2-2--2-2-2-2-2-2-2-2-|
E|-0-0-0-0-0-0-0-0--0-0-0-0-0-0-0-0-|

Part C Gives it all away...
e|-0-0-0-0-0-0-0-0----------------------|
B|-0-0-0-0-0-0-0-0-(4)(4)(4)(4)---------|
G|-1-1-1-1-1-1-1-1--4--4--4--4--x-x-x-x-|
D|-2-2-2-2-2-2-2-2--4--4--4--4--x-x-x-x-|
A|-2-2-2-2-2-2-2-2--2--2--2--2--x-x-x-x-|
E|-0-0-0-0-0-0-0-0----------------------|

Chorus 2 Part A:
e|-0-0-0-0--0-0-0-0--0-0-0-0--------------|
B|-0-0-0-0--0-0-0-0--0-0-0-0-(4)(4)(4)(4)-|
G|-1-1-1-1--2-2-2-2--1-1-1-1--4--4--4--4--|
D|-2-2-2-2--2-2-2-2--2-2-2-2--4--4--4--4--|
A|-2-2-2-2--2-2-2-2--2-2-2-2--2--2--2--2--|
E|-0-0-0-0--0-0-0-0--0-0-0-0--------------|

Part B You're better off that way...
e|------------------------------------------|
B|-2-2-2-2-2-2-2-2-(4)(4)(4)(4)(4)(4)(4)(4)-|
G|-2-2-2-2-2-2-2-2--4--4--4--4--4--4--4--4--|
D|-2-2-2-2-2-2-2-2--4--4--4--4--4--4--4--4--|
A|-0-0-0-0-0-0-0-0--2--2--2--2--2--2--2--2--|
E|------------------------------------------|

Bridge Part A:
e|-----------------------------------------------------------------|
B|-----------------------------------------------------------------|
G|-----------------------------------------------------------------|
D|-7-7-x-x-x-7-7-7-x-x-x-x-4-4-x-x-x-4-4-4-x-x-x-x-2-2-2-2-2-2-2-2-|
A|-7-7-x-x-x-7-7-7-x-x-x-x-4-4-x-x-x-4-4-4-x-x-x-x-2-2-2-2-2-2-2-2-|
E|-5-5-x-x-x-5-5-5-x-x-x-x-2-2-x-x-x-2-2-2-x-x-x-x-0-0-0-0-0-0-0-0-|

Part B
e|------------------|
B|------------------|
G|-2-2-2-2--4-4-4-4-|
D|-2-2-2-2--4-4-4-4-|
A|-0-0-0-0--2-2-2-2-|
E|------------------|

Part C
e|-------|
B|-------|
G|-9--9/-| / means slide up randomly
D|-9--9/-|
A|-7--7/-|
E|-------|

Chorus 3 Part A:
e|-0-0-0-0--0-0-0-0--0-0-0-0--------------|
B|-0-0-0-0--0-0-0-0--0-0-0-0-(4)(4)(4)(4)-|
G|-1-1-1-1--2-2-2-2--1-1-1-1--4--4--4--4--|
D|-2-2-2-2--2-2-2-2--2-2-2-2--4--4--4--4--|
A|-2-2-2-2--2-2-2-2--2-2-2-2--2--2--2--2--|
E|-0-0-0-0--0-0-0-0--0-0-0-0--------------|

Part B You're better off that way...
e|------------------------------------------|
B|-2-2-2-2-2-2-2-2-(4)(4)(4)(4)(4)(4)(4)(4)-|
G|-2-2-2-2-2-2-2-2--4--4--4--4--4--4--4--4--|
D|-2-2-2-2-2-2-2-2--4--4--4--4--4--4--4--4--|
A|-0-0-0-0-0-0-0-0--2--2--2--2--2--2--2--2--|
E|------------------------------------------|

Part C
e|----------------------------------|
B|----------------------------------|
G|-2-2-2-2-2-2-2-2--4-4-4-4-4-4-4-4-|
D|-2-2-2-2-2-2-2-2--4-4-4-4-4-4-4-4-|
A|-0-0-0-0-0-0-0-0--2-2-2-2-2-2-2-2-|
E|----------------------------------|

End On:
e|------------------|
B|------------------|
G|-2-2-2-2-2-2-2--4-|
D|-2-2-2-2-2-2-2--4-|
A|-0-0-0-0-0-0-0--2-|
E|------------------|

###############################
# Song Structure: #
# Intro/verse Part A: x7 #
# Part B: x1 #
# Part C: x1 #
# Chorus part A: x3 #
# Part B: x1 #
# Verse 2 Part A x4 #
# Part B: x1 #
# Part C: x1 #
# Chorus 2 part A: x3 #
# Part B: x1 #
# Bridge part A: x1 #
# Part B: x1 #
# Part C: x1 #
# Chorus 3 part A: x3 #
# Part B: x1 #
# End on: x1 #
###############################

###################################################
# Key: #
# (4) - Ghost 4 (can hardly hear at all) #
# / - Slide up #
# x - Scratch (no pressure applied to the string) #
###################################################

Lyrics:
You held my hand and walked me home, I know
Why you gave me that kiss
It was something like this and made me go oh oh
You wiped my tears got rid of all my fears
Why did you have to go?
Guess it wasn't enough to take up some of my love
Guys are so hard to trust

Pre-Chorus
Did I not tell you that I'm not like that girl
The one who gives it all away - yeah

Chorus
Did you think that I was going to give it up to you -
this time
Did you think it was something I was going to do -
and cry
Don't try to tell me what to do
Don't try to tell me what to say
You're better off that way

Don't think that your charm
And the fact that your arm is now around my neck
Will get you in my pants
I'm gonna have to kick your a** and make you never forget
I'm gonna ask you to stop
I thought I liked you alot but I'm really upset
Get out of my head get off of my bed
Yeah that's what I said

Pre-Chorus

Chorus

Bridge
This guilt trip that you put me on
Won't mess me up I've done no wrong
And the thoughts of you and me have gone - away

Pre-Chorus

Chorus

I'm better off alone anyway


Get this song at amazon.com      Ebay     Ringtones Ringtones  


Learn to play: Songwriting, Piano, Harmonica, Guitar
301 Moved Permanently

Moved Permanently

The document has moved here.

Related Avril Lavigne Tabs

Things Ill Never Say tabs
Things I'll Never Say! tabs
Unwanted tabs
He Wasnt tabs
O Holy Night Chords tabs
Keep Holding On tabs
I Dont Give tabs
I Dont Have To Try tabs
Sk8ter Boi2 tabs
When Youre Gone Bass tabs
Girlfriend Bass tabs
Complicated (live & Cd) tabs
Together tabs
Sk8a Boi tabs
Mobile Solo tabs
Fuel tabs
Sk8er Boi (Remix) tabs
Best Damn Thing tabs
Things I Will Never Say tabs
How Does It Feel tabs


Guitar Tabs




All tabs are property and copyright of their owners. All tabs provided for educational purposes only. Privacy Policy, DMCA