Avril Lavigne

Complicated3 Chords, Tabs



More from Avril Lavigne

Avril Lavigne Tabs
Avril Lavigne Chords
Avril Lavigne Bass
Avril Lavigne Lyrics

My Version: 



Title: Complicated

ARTIS: Avril Lavigne

Intro:

e |---3----------------------------|
B |-----3----1-0-1-0---------------|
G |-------------------0------------|
D |--------------------------------|
A |--------------------------------|
E |-3------------------------------|

e |----3---------------------------|
B |------3------1-0-1-0------------|
G |---------------------0----------|
D |--------------------------------|
A |-2------------------------------|
E |--------------------------------|

e |---3------------------------3---|
B |-----3----1-0-1----1-3-3-------|
G |--------------------------------|
D |--------------------------------|
A |-3------------------------------|
E |--------------------------------|

e |--------------7-8-7---------|
B |------------8---------------|
G |----------------------------|
A |----------------------------|
E |----------------------------|


----------------------------------

Easy Way to play it......................

Date: September 11, 2002
Song: Complicated
Artist: Avril Lavigne
TaBed by: Bracks

Standard tuning

here it goes...........


Intro: Em - G D


VERSE 1:

G
Chill out, whatcha yelling Gor?
Em
Lay back, it?s all been done beGore.
C
And iG you would only
D
Let it be, you will see
G
I like you the way you are
Em
When we?re driving in your car
C
And you?re talking to me
D
One on one, but you become


--------------------------------------------

PRE-CHORUS:

Em
Somebody else, round everyone else
G
Watching you back, Like you can?t relax
C
You?re trying to be cool, you look like a Gool to
D
Me, tell me


----------------------------------------------
CHORUS:

Em                            C               G
Why?d you have to go and make things so complicated?
D
I see the way you?re
Em                          C                     G
Acting like you?re somebody else, it gets me Grustrated
D
And liGe?s like this you
Em                    C
And you Gall and you crawl and you break
         G                        D
And you take what you get and you turn it into
Em                          C                  G
Honesty and promise me I?m never going to Gind you Gakin?

No no no

------------------------------------------------

VERSE 2:

G
You come over unannounced
Em
Dressed up, like you?re something else
C
Where you are and where it?s
D
At you see, you?re making me
G
Laugh out, when you strike a pose
Em
Take oGG, all you?re preppy clothes
C
You know you?re not Gooling
D
Anyone when you become

--------------------------

PRE-CHORUS

--------------------------

CHORUS

G
Chill out, whatcha yelling Gor?
Em
Lay back, it?s all been done beGore.
C
And iG you would only
D
Let it be, you will see

PRE-CHORUS

CHORUS (2x)

End on G

Chords:

Em ? 220233
G  - 210033
C  - 320033
D ?  x00232

Questions, comments, congratulations, complaints, or whatever else you may want to say

email me @ bracks_superman69@yahoo.com
Get this song at amazon.com      Ebay     Ringtones Ringtones  


Learn to play: Songwriting, Piano, Harmonica, Guitar
More Avril Lavigne lyrics available at Muzikum

Related Avril Lavigne Chords

Falling Fast chords
Give You What You Like chords
Complicated3 chords
Bitchin Summer chords
What The Hell chords
Headset chords
Falling Down chords
Tomorrow Live chords
Rock N Roll chords
Falling Into History Fell Out chords
Let Me Go chords
Let Go chords
Hush Hush chords
Sippin On Sunshine chords
My World chords
You Aint Seen Nothing Yet chords
Tomorrow Acoustic chords
Bad Girl chords
Imagine chords
How Does It Feel chords


Guitar Tabs









All tabs are property and copyright of their owners. All tabs provided for educational purposes only. Privacy Policy, DMCA