Avril Lavigne

Complicated (riff) Tabs



More from Avril Lavigne

Avril Lavigne Tabs
Avril Lavigne Chords
Avril Lavigne Bass
Avril Lavigne Lyrics



Tabber:spuier
Tuning:Normal
D=strum down
U=strum up


Verse
G Em C D
---3-3-3-3-3-3-3--0-0-0-0-0-0-0--0-0-0-0-0-0-0--2-2-2-2-2-2-2~-
---3-3-3-3-3-3-3--0-0-0-0-0-0-0--1-1-1-1-1-1-1--3-3-3-3-3-3-3~-
---0-0-0-0-0-0-0--0-0-0-0-0-0-0--0-0-0-0-0-0-0--2-2-2-2-2-2-2~-
---0-0-0-0-0-0-0--2-2-2-2-2-2-2--2-2-2-2-2-2-2--0-0-0-0-0-0-0~-
---2-2-2-2-2-2-2--2-2-2-2-2-2-2--3-3-3-3-3-3-3-----------------
---3-3-3-3-3-3-3--0-0-0-0-0-0-0--------------------------------
D D U D U D D D D U D U D D D D U D U D D D D U D U D D

Bridge

---0-0-0-0-0-0-0--0-0-0-0-0-0-0--0-0-0-0-0-0-0--2-2-2-2-2-2-2~-
---1-1-1-1-1-1-1--0-0-0-0-0-0-0--2-2-2-2-2-2-2--3-3-3-3-3-3-3~-
---0-0-0-0-0-0-0--0-0-0-0-0-0-0--0-0-0-0-0-0-0--2-2-2-2-2-2-2~-
---2-2-2-2-2-2-2--2-2-2-2-2-2-2--2-2-2-2-2-2-2--0-0-0-0-0-0-0~-
---3-3-3-3-3-3-3--2-2-2-2-2-2-2--3-3-3-3-3-3-3-----------------
------------------0-0-0-0-0-0-0--------------------------------
D D U D U D D D D U D U D D D D U D U D D D D U D U D D

Chorus

Em C G D
Why do you have to go and make thing's

Em C
So complicated

At the end of the chorus (the second time you do it) play Am and one strum of C

VERSE X2
BRIDGE
CHORUS X2
VERSE X3
BRIDGE
CHORUS X2
BRIDGE
CHORUS X2


Get this song at amazon.com      Ebay     Ringtones Ringtones  


Learn to play: Songwriting, Piano, Harmonica, Guitar
301 Moved Permanently

Moved Permanently

The document has moved here.

Related Avril Lavigne Tabs

Girlfriend tabs
Best Dman Thing tabs
My Happy Ending tabs
Im With You Live tabs
Unwanted tabs
He Wasnt Live tabs
When Youre Gone tabs
Alone tabs
How Does It Feel tabs
Things I'll Never Say tabs
Headset Bass tabs
Tomorrow tabs
Fall To Pieces tabs
Losing Grip tabs
Freak Out tabs
Dont Tell Me tabs
My Happy Ending Acoustic tabs
Take Me Away Live tabs
Sk8er Boi tabs
Not The Only One Bass tabs


Guitar Tabs




All tabs are property and copyright of their owners. All tabs provided for educational purposes only. Privacy Policy, DMCA