Avril Lavigne

Complicated (live & Cd) Tabs



More from Avril Lavigne

Avril Lavigne Tabs
Avril Lavigne Chords
Avril Lavigne Bass
Avril Lavigne Lyrics



Artist: Avril Lavigne
Song: Complicated
By R&B

In the recorded song appear two guitars... I tabbed this song for one guitar... but the
intro needs the two guitars... The 2 guitar play the same in the whole song...

Intro:
Guitar 1:

e|-----------------|----------------|----------------|----------------|
B|--1h3------------|----------------|-1h3---1/3------|-------------6p5|
G|--2--------------|---2-----5--5---|--2-------------|----------------|
D|--0--------------|-3--------------|--0-------------|-3--------------|
A|-----------------|----------------|----------------|----------------|
E|-----------------|----------------|----------------|----------------|

e|--------------------------------------------------------------|
B|------------------13-------------------------------------5----|
G|--14/------------------------------14-10-12-14-----------5----| x2
D|--------------------------------------------------------------|
A|--12/------------------------------12--8-10-12----------------|
E|--------------------------------------------------------------|

Guitar 2: this is the intro riff... just play the chords, there are two ways that sound
right... choose what you think sound right. I like both, ‘cause one is the original (CD)...
and sometimes they play the other one (live presentations)
Dm or D/A Bb F C
e|----1-1-1----|--------------|--------------|--------------|
B|----3-3-3----|----3-3-3-----|--------------|---1-1-1------|
G|----2-2-2----|----3-3-3-----|----2-2-2-----|---0-0-0------|
D|----0-0-0----|----3-3-3-----|----3-3-3-----|---2-2-2------|
A|----0-0-0----|----1-1-1-----|----3-3-3-----|---3-3-3------|
E|-------------|--------------|----1-1-1-----|--------------|

Or
Dm Dm F C
e|----1-1-1----|----1-1-1-----|--------------|--------------|
B|----3-3-3----|----3-3-3-----|--------------|---1-1-1------|
G|----2-2-2----|----2-2-2-----|----2-2-2-----|---0-0-0------|
D|----0-0-0----|----0-0-0-----|----3-3-3-----|---2-2-2------|
A|-------------|--------------|----3-3-3-----|---3-3-3------|
E|-------------|--------------|----1-1-1-----|--------------|

Use what you want and play it for 4 times... (x4)

VERSE 1

F Dm Bb C
e|-------------|--------------|--------------|--------------|
B|-------------|----6-6-6-----|--------------|--------------|
G|----2-2-2----|----7-7-7-----|----3-3-3-----|---5-5-5------| x2
D|----3-3-3----|----7-7-7-----|----3-3-3-----|---5-5-5------|
A|----3-3-3----|----5-5-5-----|----1-1-1-----|---3-3-3------|
E|----1-1-1----|--------------|--------------|--------------|

Bb D Bb C
e|-------------|--------------|--------------|--------------|
B|-------------|----6-6-6-----|--------------|--------------|
G|----3-3-3----|----7-7-7-----|----3-3-3-----|-----5--------| x2
D|----3-3-3----|----7-7-7-----|----3-3-3-----|-----5--------|
A|----1-1-1----|----5-5-5-----|----1-1-1-----|-----3--------|
E|-------------|--------------|--------------|--------------|
(let it ring)





CHORUS

Dm Bb F C
e|-------------|--------------|--------------|--------------|
B|----6-6-6----|----3-3-3-----|--------------|--------------|
G|----7-7-7----|----3-3-3-----|----2-2-2-----|---7-7-7------| x3
D|----7-7-7----|----3-3-3-----|----3-3-3-----|---7-7-7------|
A|----5-5-5----|----1-1-1-----|----3-3-3-----|---5-5-5------|
E|-------------|--------------|----1-1-1-----|--------------|

G Bb
e|---------------------------|---------------|
B|---------------------------|---------------|
G|---------------------------|------3--------|
D|---5-5-5-5-5-5-5-5-5-5-5---|------3--------|
A|---5-5-5-5-5-5-5-5-5-5-5---|------1--------|
E|---3-3-3-3-3-3-3-3-3-3-3---|---------------|
(let it ring)

then, before the second verse, play this...

e|----------|--------|
B|----------|--------|
G|----10----|--------|
D|----10----|--------|
A|----8-----|--------|
E|----------|----8--|

VERSE 2: (same as the first)

CHORUS

BRIDGE: (that’s when she say “no, no, no... etc”)

e|------|------|------|------|------|
B|------|------|------|------|------|
G|--10--|--10--|--10--|--10--|--9---|
D|--10--|--10--|--10--|--10--|--10--|
A|--8---|--8---|--8---|--8---|--10--|
E|------|--10--|--6---|--8---|--8---|
F F/D F/B Csus C

Then back to verse...

VERSE 3 (same as the first and second, but it has a few differences in the way that it’s
played the C chord)

CHORUS x2
by R&B


Get this song at amazon.com      Ebay     Ringtones Ringtones  


Learn to play: Songwriting, Piano, Harmonica, Guitar
More Avril Lavigne lyrics available at Muzikum

Related Avril Lavigne Tabs

Falling Down tabs
Let Go Album tabs
Best Dman Thing tabs
Innocence Bass tabs
Unwanted tabs
Mobile Solo tabs
Freak Out tabs
Don Tell Me tabs
Sk8er Boi tabs
Fall To Pieces tabs
Why tabs
Runaway tabs
He Wasnt Acoustic tabs
Sk8er Boi Acoustic tabs
Nobodys Fool tabs
I'm With You tabs
Complicated (riff) tabs
Forgotten tabs
I Dont Give Live tabs
Take Me Away Acoustic tabs


Guitar Tabs









All tabs are property and copyright of their owners. All tabs provided for educational purposes only. Privacy Policy, DMCA