Avril Lavigne

Anything But Ordinary2 Tabs



More from Avril Lavigne

Avril Lavigne Tabs
Avril Lavigne Chords
Avril Lavigne Bass
Avril Lavigne Lyrics

Song: Anything But Ordinary


Artist: Avril Lavigne
Album: Let Go

*CAPO ALL GUITARS IN THE 5th FRET*

Intro A (Guitar 1)
a----------------------------------------------------------
E----------------------------------------------------------
B--------2---------0---------0---------0-------------------
G----3---------2---------0---------0-----------------------
D--5---5-----3---3-----2---2-----2---2---------------------
A----------------------------------------------------------

Intro B (Guitar 2)
a----------------------------------------------------------
E----------------------------------------------------------
B----------------------------------------------------------
G--3-3-3-3-3-3-3-3-32-2-2-2-2-2-2-2-2-0-0-0-0-0-0-0-0-0-
D--5-5-5-5-5-5-5-5-53-3-3-3-3-3-3-3-32-2-2-2-2-2-2-2-2-0-
A----------------------------------------------------------

(continued)
a----------------------------------------------------------
E----------------------------------------------------------
B----------------------------------------------------------
G--0-0-0-0-0-0-0-0-3-3-3-3-3-3-3-3-32-2-2-2-2-2-2-2-2-2-
D--2-2-2-2-2-2-2-2-5-5-5-5-5-5-5-5-53-3-3-3-3-3-3-3-3-32-
A----------------------------------------------------------

(continued)
a----------------------------------------------------------
E----------------------------------------------------------
B----------------------------------------------------------
G--0-0-0-0-0-0-0-0-0-0-0-0-0-0-0-0-------------------------
D--2-2-2-2-2-2-2-2-2-2-2-2-2-2-2-2-------------------------
A----------------------------------------------------------

Intro C (Guitar 3)
a----------------------------------------------------------
E----------------------------------------------------------
B-------2--2-2-2-------0--0-0-0-------0--------------------
G-------3--3-3-3-------2--2-2-2-------0--------------------
D--5--5-5--5-5-5--3--3-3--3-3-3--2--2-2--------------------
A----------------------------------------------------------

Verse (Guitar 1)
a-----3--3-3-3------3--3-3-3------0--0-0-0------0--0-0-0---
E-----3--3-3-3------3--3-3-3------3--3-3-3------3--3-3-3---
B-----0--0-0-0------0--0-0-0------0--0-0-0------0--0-0-0---
G-----0--0-0-0------0--0-0-0------0--0-0-0------0--0-0-0---
D-----2--2-2-2------2--2-2-2------2--2-2-2------2--2-2-2---
A--3--3--3-3-3---3--3--3-3-3---2--2--2-2-2---2--2--2-2-2---

(continued)
a-----0--0-0-0------0--0-0-0------3--3-3-3------2--3-3-2---
E-----0--0-0-0------0--0-0-0------1--1-1-1------3--3-3-3---
B-----0--0-0-0------0--0-0-0------0--0-0-0------2--2-2-2---
G-----2--2-2-2------2--2-2-2------2--2-2-2---0--0--0-0-0---
D-----2--2-2-2------2--2-2-2---3--3--3-3-3-----------------
A--0--0--0-0-0---0--0--0-0-0-------------------------------

Chorus
a------0------0------2------2------3------3------0------0--
E------1------1------3------3------3------3------0------0--
B------0------0--2-2-2--2-2-2------0------0------0------0--
G--2-2-2--2-2-2--0-0-0--0-0-0------0------0------2------2--
D--3-3-3--3-3-3----------------2-2-2--2-2-2--2-2-2--2-2-2--
A------------------------------3-3-3--2-2-2--0-0-0--0-0-0--

(continued)
a------0------0------2------2------0------0------0------0--
E------1------1------3------3------0------0------0------0--
B------0------0--2-2-2--2-2-2------0------0------0------0--
G--2-2-2--2-2-2--0-0-0--0-0-0------2------2------2------2--
D--3-3-3--3-3-3----------------2-2-2--2-2-2--2-2-2--2-2-2--
A------------------------------0-0-0--0-0-0--0-0-0--0-0-0--

(continued)
a------0------0------0------0------3------3------0------0--
E------1------1------1------1------3------3------0------0--
B------2------2------0------0------0------0------0------0--
G--2-2-2--2-2-2--2-2-2--2-2-2------0------0------2------2--
D--0-0-0--0-0-0--3-3-3--3-3-3--2-2-2--2-2-2--2-2-2--2-2-2--
A------------------------------3-3-3--2-2-2--0-0-0--0-0-0--

(continued)
a------1------1------3------3------0------0------0------0--
E------3------3------1------1------0------0------0------0--
B--2-2-2--2-2-2------0------0------0------0------0------0--
G--0-0-0--0-0-0--2-2-2--2-2-2------2------2------2------2--
D----------------3-3-3--3-3-3--2-2-2--2-2-2--2-2-2--2-2-2--
A------------------------------0-0-0--0-0-0--0-0-0--0-0-0--

Riff (Guitar 2)
a----------------------------------------------------------
E----------------------------------------------------------
B----------------------------------------------------------
G----------------------------------------------------------
D----2---------0------------2------------------------------
A--3---3-----2---2-----0--3-----0--0----3---3--------------

Post-Chorus
a------1------1------0------0------3------3------3------3--
E------3------3------1------1------3------3------3------3--
B--2-2-2--2-2-2------0------0------0------0------0------0--
G--0-0-0--0-0-0--2-2-2--2-2-2------0------0------0------0--
D----------------3-3-3--3-3-3--2-2-2--2-2-2--2-2-2--2-2-2--
A------------------------------3-3-3--3-3-3--3-3-3--3-3-3--

Bridge 1
a--0-0-0-0--0-0-0--2-2-2-2--2-2-2--0-0-0-0--0-0-0--2-2-2-2-
E--0-0-0-0--0-0-0--3-3-3-3--3-3-3--2-2-2-2--2-2-2--3-3-3-3-
B--0-0-0-0--0-0-0--4-4-4-4--4-4-4--2-2-2-2--2-2-2--2-2-2-2-
G--2-2-2-2--2-2-2--4-4-4-4--4-4-4--2-2-2-2--2-2-2--0-0-0-0-
D--2-2-2-2--2-2-2--2-2-2-2--2-2-2--0-0-0-0--0-0-0----------
A--0-0-0-0--0-0-0------------------------------------------

(continued)
a--2-2-2--0-0-0-0--0-0-0--2-2-2-2--2-2-2--0-0-0-0--0-0-0---
E--3-3-3--0-0-0-0--0-0-0--3-3-3-3--3-3-3--2-2-2-2--2-2-2---
B--2-2-2--0-0-0-0--0-0-0--4-4-4-4--4-4-4--2-2-2-2--2-2-2---
G--0-0-0--2-2-2-2--2-2-2--4-4-4-4--4-4-4--2-2-2-2--2-2-2---
D---------2-2-2-2--2-2-2--2-2-2-2--2-2-2--0-0-0-0--0-0-0---
A---------0-0-0-0--0-0-0-----------------------------------

(continued)
a--2-2-2-2--2-2-2--0-0-0-0--0-0-0--2-2-2-2--2-2-2--0-0-0-0-
E--3-3-3-3--3-3-3--0-0-0-0--0-0-0--3-3-3-3--3-3-3--2-2-2-2-
B--2-2-2-2--2-2-2--0-0-0-0--0-0-0--4-4-4-4--4-4-4--2-2-2-2-
G--0-0-0-0--0-0-0--2-2-2-2--2-2-2--4-4-4-4--4-4-4--2-2-2-2-
D------------------2-2-2-2--2-2-2--2-2-2-2--2-2-2--0-0-0-0-
A------------------0-0-0-0--0-0-0--------------------------

(continued)
a--0-0-0-0--0-0-0-0--0-0-0-0-------------------------------
E--2-2-2-2--2-2-2-2--2-2-2-2-------------------------------
B--2-2-2-2--2-2-2-2--2-2-2-2-------------------------------
G--2-2-2-2--2-2-2-2--2-2-2-2-------------------------------
D--0-0-0-0--0-0-0-0--0-0-0-0-------------------------------
A----------------------------------------------------------

Bridge 2
a----------------------------------------------------------
E----------------------------------------------------------
B----------------------------------------------------------
G----------------------------------------------------------
D--5-5-5-5-5-5-5-5--5-5-5-5-5-5-5-5--5-5-5-5-5-5-5-5-------
A--3-3-3-3-3-3-3-3--3-3-3-3-3-3-3-3--2-2-2-2-2-2-2-2-------

(continued)
a----------------------------------------------------------
E----------------------------------------------------------
B----------------------------------------------------------
G----------------------------------------------------------
D--5-5-5-5-5-5-5-5--2-2-2-2-2-2-2-2--2-2-2-2-2-2-2-2-------
A--2-2-2-2-2-2-2-2--0-0-0-0-0-0-0-0--0-0-0-0-0-0-0-0-------

(continued)
a-------------------2-2-2-2-2-2-2-2-2-2-2-2----------------
E-------------------3-3-3-3-3-3-3-3-3-3-3-3----------------
B-------------------2-2-2-2-2-2-2-2-2-2-2-2----------------
G--5-5-5-5-5-5-5-5--0-0-0-0-0-0-0-0-0-0-0-0----------------
D--3-3-3-3-3-3-3-3-----------------------------------------
A----------------------------------------------------------

Outro A (Guitar 1)
a----------------------------------------------------------
E----------------------------------------------------------
B-----2---2------0----0----0----0----0---------------------
G--3----3---3--2----2----2----2----2-----------------------
D----------------------------------------------------------
A----------------------------------------------------------

Outro B (Guitar 2)
a-----5---5-------3----3----3----3----3--------------------
E--6----6---6---5----5----5----5----5----------------------
B----------------------------------------------------------
G----------------------------------------------------------
D----------------------------------------------------------
A----------------------------------------------------------


Intro A, B
Intro A, B, C
Verse
Chorus
Verse, Riff
Chorus
Post-Chorus
Bridge 1
Bridge 2
Chorus
Outro A, B
Get this song at amazon.com      Ebay     Ringtones Ringtones  


Learn to play: Songwriting, Piano, Harmonica, Guitar
More Avril Lavigne lyrics available at Muzikum

Related Avril Lavigne Tabs

Nobody's Fool tabs
Who Knows tabs
Let Go Album tabs
Who Knows Intro tabs
He Wasnt tabs
Innocence tabs
Iím With You tabs
Girlfriend tabs
Dont Tell Me Acoustic tabs
Keep Holding On tabs
Unwanted tabs
Forgotten tabs
Sk8er Boi tabs
Mobile tabs
Hot tabs
Things Ill Never Say tabs
Runaway tabs
Sk8er Boi4 tabs
Things Ill Never Say (Live) tabs
Skater Boi tabs


Guitar Tabs









All tabs are property and copyright of their owners. All tabs provided for educational purposes only. Privacy Policy, DMCA