Audio Karate

Audio Karate - Halfway Decent guitar tab

Intro

(Jason, Lead Guitar w/ Distortion)

e|------------|

B|------------|

G|-999-8-9----|

D|---------9--| repeat 3 times

A|-777-6-7----|

E|---------7--|

And then and on this note

e|--------------|

B|--------------|

G|--9-----------|

D|--------------|

A|--7-----------|

E|--------------|

At the same time Jason plays that, Art ends the song with and low E power chord.

D|2~--|

A|2~--|

E|0~--|

Chorus Riffs

(Jason)

numbers are 11’s, 12’s and 14’s

e|------------------------------14----14------------|

B|-----------------------9—-1212--1212----------11-9|

G|-6/8888h9p8--/9999h11p9-9--------------8/99999----|

D|--------------------------------------------------|

A|--------------------------------------------------|

E|--------------------------------------------------|

At the end of the Chorus (except for when they enter the interlude and the ending) it is

like this

e|---------------------|

B|-12~-11~-9~-7~-------|

G|---------------------|

D|---------------------|

A|---------------X-----|

E|---------------X-----|

(Art)

e|------------------------------------|

B|------------------------------------|

G|-66666666-88888888-99999999---------|

D|-66666666-88888888-99999999-99999999|

A|-44444444-66666666-77777777-99999999|

E|----------------------------77777777|

On the last time play after you finish playing the B Power Chords go and play a it for

High E power chord and hold it.

G|--9~|

D|--9~|

A|--7~|

Verse

(Jason) the verse is one chord moved around on the A and G strings.

*for lack of space, I put one 11 related to two 9’s.

G|-8/9-998-886-664-88/9-998-886-664-88/11-119-998-886-664-44/6-66/8-884-------------|

D|----------------------------------------------------------------------------------|

A|-6/7-776-664-442-66/7-776-664-442-66/9--997-776-664-442-22/4-44/6-662-------------|

At the end of the verse Jason plays something like this

*depending on Verse its either the the low E or the High F#, try them out when listening to the song

E|--------------00000000|

B|--------------00000000|

G|--------------99999999|

D|*44444444-------------|

A|-22222222-----77777777|

E|-00000000-------------|

(Art)

e|--------------------------------------------------------------|

B|--------------------------------------------------------------|

G|--------------------------------------------------------------|

D|-66-666-666-666-----------------444-444-444-444-------------6-|

A|-44-444-444-444-444-444-444-444-222-222-222-222-222-222-222-4-|

E|----------------222-222-222-222-----------------444-444-444---|

Pre-Chorus Pt. 1

(Jason)

e|----------------|

B|----------------|

G|9-9-999-8-99-999|

D|----------------|

A|7-7-777-6-77-777|

E|----------------|

This is the main riff. However, depending on which Pre-Chorus you are in, the order of

fills is different look below.

In the first Pre-Chorus, the order is Fill One then Fill Two.

In the second Pre-Chorus, the order is Fill Two then Fill One.

Fill One

e|-------------------------|

B|-------------------------|

G|8-8-888-6-66-666-44444444|

D|-------------------------|

A|6-6-666-4-44-444-22222222|

E|-------------------------|

Fill Two

(11’s and 13’s)

e|-----------------------------|

B|-----------------------------|

G|8-8-888-13-13-131313-44444444|

D|-----------------------------|

A|6-6-666-11-11-111111-22222222|

E|-----------------------------|

(Art)

Art’s part during the pre-chorus is played in Straight 8th notes for 2 measures

I only write it out for one measure) and uses similar chords as the verse with slight variation.

e|---------------------------------------------|

B|---------------------------------------------|

G|-66666666----------44444444------------------|

D|-66666666-44444444-44444444-22222222---------|

A|-44444444-44444444-22222222-22222222---------|

E|-44444444-22222222-22222222-00000000---------|

Pt.2

(Jason and Art)

they play the same exact thing so it doesn’t matter.

e|---------------------0~--0|

B|-------------4-4-----0~--0|

G|-----3-3-6-6-3-3—-6~-4~--4|

D|-6-6-3-3-6-6-1-1—-6~-2~--2|

A|-6-6-1-1-4-4------4~-2~--2|

E|-4-4-----------------0~--0|

Interlude Pt.1

(Jason)

e|--------|

B|-12~-12~|

G|--------|

(Art)

G|4~-4~|

D|2~-2~|

A|2~-2~|

E|0~-0~|

Interlude Pt.2

(Jason , Clean Tone, let all notes ring)

repeat twice

e|14--14--14--14-------------------7---9---11---12-------------------|

B|--12--12--12--12--7---7---7---7----0---0----0----0--7---7---7---7--|

G|--------------------9---9---9---9---------------------9---9---9---9|

(Art, Clean Tone, Let all notes ring)

two parts to it.

Pt.1

e|-7----7---------------------7---7----------------|

B|--7--7-7~--7-------5h7-5h7----0---0----7p5---7p5-|

G|-------------4-6-8-------------------4-----4-----|

Pt.2

e|-7---6---4---4-----------------------7---7---------------|

B|---0---0---0----7------------5h7-5h7---7---7----7p5---7p5|

G|-------------------8h9p8h9p8------------------4-----4----|

Solo Pt. 1

Jason plays his part throughout Art’s guitar solo. Art plays as follows.

(these are 11’s

e|------------------------------------------------------------------|

B|------------------------------------------------------------------|

G|--------8-8h9p8h9p8h9p8------8-8h9p8h9p8h9p8------8-8h9p8h9p8h9p8-|

D|11—-11~-----------------8-8~-----------------9-9~-----------------|

A|--11---------------------9--------------------9-------------------|

E|------------------------------------------------------------------|

e|------------------------------------------------------------------|

B|------------------------------------------------------------------|

G|-------8-8-9-11-9-8h9p8--------8-8h9p8h9p8h9p8-----8-8h9p8h9p8h9p8|

D|6—--6~------------------11—-11~----------------8-8~---------------|

A|--6-----------------------11--------------------9-----------------|

E|------------------------------------------------------------------|

Continue Hammering between the Eb and E on the G string (aka 8h9p8) for awhile and then go into this.

Solo Pt.2, Section 1

(Jason) For the first part of the second part of the solo, Jason is playing a power chord progression.

G|66666666----------44444444---------|

D|66666666-44444444-44444444-22222222|

A|44444444-44444444-22222222-22222222|

E|---------22222222----------44444444|

(Art)

Throughout both Sections of the Pt.2 solo Jason plays this, I’ll also include the

Variations played.

(These are 11’s, note, so that the 11’s do not looked bunch together, I put spaces

them, this doesn’t reflect the rhythm however, listen to the song for the correct rhythm.)

G|11-11—119-9-98-8-86-6/11-----|

D|-----------------------------|

Solo Pt.2, Section 2

(Jason) now Jason stops playing the power chord progression and plays this. Listen to

song for timing.

e|--4--4--4--4--6--6--6--6--7--7--7--7--9--9--9--9—-9—-9--9--9--9—-9|

B|22-22-22-22-44-44-44-44-55-55-55-55-77-77-77-77-77-77-77-77-77-77-|

(Art)

Here is where the variation is. Art places this three times after Jason begins his above

then he kicks its back into the original version.

G|11-11—11h139-9-98-8-86-6/11-----|

D|--------------------------------|

Solo Pt.2, Section 3

(Jason)

Jason only makes on change, the little fill at the ending before kicking it into the

chorus. That’s played like this.

e|--9—-9—-9—-7h9p7----------|

B|77-77-77--------9p7h9p7p5-|

CHEERS!!!Added by tabs-database.com and our distinguished partners

Get this song at:  amazon.com

Share your thoughts

0 Comments found